  0
SECTION
  2
HEADER
  9
$ACADVER
  1
AC1009
  9
$INSBASE
 10
0.0
 20
0.0
 30
0.0
  9
$EXTMIN
 10
0.05
 20
0.87
 30
0.0
  9
$EXTMAX
 10
7.344289
 20
5.5
 30
0.0
  9
$LIMMIN
 10
0.0
 20
0.0
  9
$LIMMAX
 10
12.0
 20
9.0
  9
$ORTHOMODE
 70
     0
  9
$REGENMODE
 70
     1
  9
$FILLMODE
 70
     1
  9
$QTEXTMODE
 70
     0
  9
$MIRRTEXT
 70
     1
  9
$DRAGMODE
 70
     2
  9
$LTSCALE
 40
1.0
  9
$OSMODE
 70
     0
  9
$ATTMODE
 70
     1
  9
$TEXTSIZE
 40
0.2
  9
$TRACEWID
 40
0.05
  9
$TEXTSTYLE
  7
STANDARD
  9
$CLAYER
  8
0
  9
$CELTYPE
  6
CONTINUOUS
  9
$CECOLOR
 62
 32767
  9
$DIMSCALE
 40
1.0
  9
$DIMASZ
 40
0.18
  9
$DIMEXO
 40
0.0625
  9
$DIMDLI
 40
0.38
  9
$DIMRND
 40
0.0
  9
$DIMDLE
 40
0.0
  9
$DIMEXE
 40
0.18
  9
$DIMTP
 40
0.0
  9
$DIMTM
 40
0.0
  9
$DIMTXT
 40
0.18
  9
$DIMCEN
 40
0.09
  9
$DIMTSZ
 40
0.0
  9
$DIMTOL
 70
     0
  9
$DIMLIM
 70
     0
  9
$DIMTIH
 70
     1
  9
$DIMTOH
 70
     1
  9
$DIMSE1
 70
     0
  9
$DIMSE2
 70
     0
  9
$DIMTAD
 70
     0
  9
$DIMZIN
 70
     0
  9
$DIMBLK
  1

  9
$DIMASO
 70
     1
  9
$DIMSHO
 70
     1
  9
$DIMPOST
  1

  9
$DIMAPOST
  1

  9
$DIMALT
 70
     0
  9
$DIMALTD
 70
     2
  9
$DIMALTF
 40
25.4
  9
$DIMLFAC
 40
1.0
  9
$DIMTOFL
 70
     0
  9
$DIMTVP
 40
0.0
  9
$DIMTIX
 70
     0
  9
$DIMSOXD
 70
     0
  9
$DIMSAH
 70
     0
  9
$DIMBLK1
  1

  9
$DIMBLK2
  1

  9
$DIMSTYLE
  2
*UNNAMED
  9
$DIMCLRD
 70
     0
  9
$DIMCLRE
 70
     0
  9
$DIMCLRT
 70
     0
  9
$DIMTFAC
 40
1.0
  9
$DIMGAP
 40
0.09
  9
$LUNITS
 70
     2
  9
$LUPREC
 70
     4
  9
$AXISMODE
 70
     0
  9
$AXISUNIT
 10
0.0
 20
0.0
  9
$SKETCHINC
 40
0.1
  9
$FILLETRAD
 40
0.0
  9
$AUNITS
 70
     0
  9
$AUPREC
 70
     0
  9
$MENU
  1
acad
  9
$ELEVATION
 40
0.0
  9
$PELEVATION
 40
0.0
  9
$THICKNESS
 40
0.0
  9
$LIMCHECK
 70
     0
  9
$BLIPMODE
 70
     1
  9
$CHAMFERA
 40
0.0
  9
$CHAMFERB
 40
0.0
  9
$SKPOLY
 70
     0
  9
$TDCREATE
 40
0.000000000
  9
$TDUPDATE
 40
0.000000000
  9
$TDINDWG
 40
0.0000000000
  9
$TDUSRTIMER
 40
0.0000000000
  9
$USRTIMER
 70
     1
  9
$ANGBASE
 50
0.0
  9
$ANGDIR
 70
     0
  9
$PDMODE
 70
     2
  9
$PDSIZE
 40
0.0
  9
$PLINEWID
 40
0.0
  9
$COORDS
 70
     0
  9
$SPLFRAME
 70
     0
  9
$SPLINETYPE
 70
     6
  9
$SPLINESEGS
 70
     8
  9
$ATTDIA
 70
     0
  9
$ATTREQ
 70
     1
  9
$HANDLING
 70
     0
  9
$HANDSEED
  5
             113
  9
$SURFTAB1
 70
     6
  9
$SURFTAB2
 70
     6
  9
$SURFTYPE
 70
     6
  9
$SURFU
 70
     6
  9
$SURFV
 70
     6
  9
$UCSNAME
  2

  9
$UCSORG
 10
0.0
 20
0.0
 30
0.0
  9
$UCSXDIR
 10
1.0
 20
0.0
 30
0.0
  9
$UCSYDIR
 10
0.0
 20
1.0
 30
0.0
  9
$PUCSNAME
  2

  9
$PUCSORG
 10
0.0
 20
0.0
 30
0.0
  9
$PUCSXDIR
 10
1.0
 20
0.0
 30
0.0
  9
$PUCSYDIR
 10
0.0
 20
1.0
 30
0.0
  9
$USERI1
 70
     0
  9
$USERI2
 70
     0
  9
$USERI3
 70
     0
  9
$USERI4
 70
     0
  9
$USERI5
 70
     0
  9
$USERR1
 40
0.0
  9
$USERR2
 40
0.0
  9
$USERR3
 40
0.0
  9
$USERR4
 40
0.0
  9
$USERR5
 40
0.0
  9
$WORLDVIEW
 70
     1
  9
$SHADEDGE
 70
     3
  9
$SHADEDIF
 70
    70
  9
$TILEMODE
 70
     1
  9
$MAXACTVP
 70
    16
  9
$PINSBASE
 10
0.0
 20
0.0
 30
0.0
  9
$PLIMCHECK
 70
     0
  9
$PEXTMIN
 10
-1.000000E+20
 20
-1.000000E+20
 30
-1.000000E+20
  9
$PEXTMAX
 10
-1.000000E+20
 20
-1.000000E+20
 30
-1.000000E+20
  9
$PLIMMIN
 10
0.0
 20
0.0
  9
$PLIMMAX
 10
12.0
 20
9.0
  9
$UNITMODE
 70
     0
  9
$VISRETAIN
 70
     0
  0
ENDSEC
  0
SECTION
  2
TABLES
  0
TABLE
  2
VPORT
 70
     1
  0
VPORT
  2
*ACTIVE
 70
     0
 10
0.0
 20
0.0
 11
1.0
 21
1.0
 12
36.0
 22
36.0
 13
0.0
 23
0.0
 14
1.0
 24
1.0
 15
0.0
 25
0.0
 16
0.0
 26
0.0
 36
1.0
 17
0.0
 27
0.0
 37
0.0
 40
76.0
 41
1.604229
 42
50.0
 43
0.0
 44
0.0
 50
0.0
 51
0.0
 71
     0
 72
   100
 73
     1
 74
     1
 75
     0
 76
     0
 77
     0
 78
     0
  0
ENDTAB
  0
TABLE
  2
LTYPE
 70
     2
  0
LTYPE
  2
CONTINUOUS
 70
     0
  3
Visual CADD Translation
 72
    65
 73
     0
 40
0.0
  0
LTYPE
  2
TYPE___1
 70
     0
  3
Visual CADD Translation
 72
    65
 73
     2
 40
1.0
 49
0.87
 49
-0.13
  0
ENDTAB
  0
TABLE
  2
LAYER
 70
     1
  0
LAYER
  2
Layer-0
 70
     0
 62
    12
  6
CONTINUOUS
  0
ENDTAB
  0
TABLE
  2
STYLE
 70
     1
  0
STYLE
  2
VC-TEXTSTYLE0
 70
     0
 40
0.2
 41
1.0
 50
0.0
 71
     0
 42
0.2
  3
TXT
  4

  0
ENDTAB
  0
TABLE
  2
APPID
 70
     0
  0
ENDTAB
  0
TABLE
  2
VIEW
 70
     0
  0
ENDTAB
  0
ENDSEC
  0
SECTION
  2
BLOCKS
  0
ENDSEC
  0
SECTION
  2
ENTITIES
  0
LINE
  8
Layer-0
  6
CONTINUOUS
 62
    11
  5
1
 10
1.8
 20
1.8
 30
0.0
 11
1.8
 21
4.8
 31
0.0
  0
LINE
  8
Layer-0
  6
CONTINUOUS
 62
    11
  5
2
 10
2.4
 20
4.2
 30
0.0
 11
2.4
 21
3.8
 31
0.0
  0
LINE
  8
Layer-0
  6
CONTINUOUS
 62
    11
  5
3
 10
2.4
 20
3.8
 30
0.0
 11
2.8
 21
4.0
 31
0.0
  0
LINE
  8
Layer-0
  6
CONTINUOUS
 62
    11
  5
4
 10
2.8
 20
4.0
 30
0.0
 11
2.4
 21
4.2
 31
0.0
  0
LINE
  8
Layer-0
  6
CONTINUOUS
 62
    11
  5
5
 10
2.4
 20
4.1
 30
0.0
 11
1.8
 21
4.1
 31
0.0
  0
LINE
  8
Layer-0
  6
CONTINUOUS
 62
    11
  5
6
 10
2.4
 20
3.9
 30
0.0
 11
1.8
 21
3.9
 31
0.0
  0
LINE
  8
Layer-0
  6
CONTINUOUS
 62
    11
  5
7
 10
2.8
 20
4.0
 30
0.0
 11
3.2
 21
4.0
 31
0.0
  0
LINE
  8
Layer-0
  6
CONTINUOUS
 62
    11
  5
8
 10
3.0
 20
4.0
 30
0.0
 11
3.0
 21
4.3
 31
0.0
  0
LINE
  8
Layer-0
  6
CONTINUOUS
 62
    11
  5
9
 10
3.0
 20
4.3
 30
0.0
 11
3.0
 21
4.5
 31
0.0
  0
LINE
  8
Layer-0
  6
CONTINUOUS
 62
    11
  5
A
 10
3.0
 20
4.5
 30
0.0
 11
1.8
 21
4.5
 31
0.0
  0
LINE
  8
Layer-0
  6
CONTINUOUS
 62
    11
  5
B
 10
3.2
 20
4.2
 30
0.0
 11
3.2
 21
3.8
 31
0.0
  0
LINE
  8
Layer-0
  6
CONTINUOUS
 62
    11
  5
C
 10
3.2
 20
3.8
 30
0.0
 11
4.0
 21
3.8
 31
0.0
  0
LINE
  8
Layer-0
  6
CONTINUOUS
 62
    11
  5
D
 10
4.0
 20
3.8
 30
0.0
 11
4.0
 21
4.2
 31
0.0
  0
LINE
  8
Layer-0
  6
CONTINUOUS
 62
    11
  5
E
 10
4.0
 20
4.2
 30
0.0
 11
3.2
 21
4.2
 31
0.0
  0
LINE
  8
Layer-0
  6
CONTINUOUS
 62
    11
  5
F
 10
4.0
 20
4.0
 30
0.0
 11
4.3
 21
4.0
 31
0.0
  0
LINE
  8
Layer-0
  6
CONTINUOUS
 62
    11
  5
10
 10
4.3
 20
4.0
 30
0.0
 11
4.3
 21
3.95
 31
0.0
  0
ARC
  8
Layer-0
  6
CONTINUOUS
 62
    11
  5
11
 10
4.3
 20
3.9
 30
0.0
 40
0.05
 50
270.0
 51
450.0
  0
ARC
  8
Layer-0
  6
CONTINUOUS
 62
    11
  5
12
 10
4.3
 20
3.8
 30
0.0
 40
0.05
 50
270.0
 51
450.0
  0
ARC
  8
Layer-0
  6
CONTINUOUS
 62
    11
  5
13
 10
4.3
 20
3.7
 30
0.0
 40
0.05
 50
270.0
 51
450.0
  0
ARC
  8
Layer-0
  6
CONTINUOUS
 62
    11
  5
14
 10
4.3
 20
3.6
 30
0.0
 40
0.05
 50
270.0
 51
450.0
  0
LINE
  8
Layer-0
  6
CONTINUOUS
 62
    11
  5
15
 10
4.3
 20
3.55
 30
0.0
 11
4.3
 21
3.5
 31
0.0
  0
LINE
  8
Layer-0
  6
CONTINUOUS
 62
    11
  5
16
 10
4.4
 20
3.95
 30
0.0
 11
4.4
 21
3.55
 31
0.0
  0
LINE
  8
Layer-0
  6
CONTINUOUS
 62
    11
  5
17
 10
4.45
 20
3.95
 30
0.0
 11
4.45
 21
3.55
 31
0.0
  0
LINE
  8
Layer-0
  6
CONTINUOUS
 62
    11
  5
18
 10
4.550001
 20
4.0
 30
0.0
 11
4.550001
 21
3.95
 31
0.0
  0
ARC
  8
Layer-0
  6
CONTINUOUS
 62
    11
  5
19
 10
4.550001
 20
3.9
 30
0.0
 40
0.05
 50
90.0
 51
270.0
  0
ARC
  8
Layer-0
  6
CONTINUOUS
 62
    11
  5
1A
 10
4.550001
 20
3.8
 30
0.0
 40
0.05
 50
90.0
 51
270.0
  0
ARC
  8
Layer-0
  6
CONTINUOUS
 62
    11
  5
1B
 10
4.550001
 20
3.7
 30
0.0
 40
0.05
 50
90.0
 51
270.0
  0
ARC
  8
Layer-0
  6
CONTINUOUS
 62
    11
  5
1C
 10
4.550001
 20
3.6
 30
0.0
 40
0.05
 50
90.0
 51
270.0
  0
LINE
  8
Layer-0
  6
CONTINUOUS
 62
    11
  5
1D
 10
4.550001
 20
3.55
 30
0.0
 11
4.550001
 21
3.5
 31
0.0
  0
LINE
  8
Layer-0
  6
CONTINUOUS
 62
    11
  5
1E
 10
4.55
 20
4.0
 30
0.0
 11
4.8
 21
4.0
 31
0.0
  0
LINE
  8
Layer-0
  6
CONTINUOUS
 62
    11
  5
1F
 10
4.8
 20
4.2
 30
0.0
 11
4.8
 21
3.4
 31
0.0
  0
LINE
  8
Layer-0
  6
CONTINUOUS
 62
    11
  5
20
 10
4.8
 20
3.4
 30
0.0
 11
5.65
 21
3.4
 31
0.0
  0
LINE
  8
Layer-0
  6
CONTINUOUS
 62
    11
  5
21
 10
5.65
 20
3.4
 30
0.0
 11
5.65
 21
3.4
 31
0.0
  0
LINE
  8
Layer-0
  6
CONTINUOUS
 62
    11
  5
22
 10
5.65
 20
3.4
 30
0.0
 11
5.65
 21
4.2
 31
0.0
  0
LINE
  8
Layer-0
  6
CONTINUOUS
 62
    11
  5
23
 10
5.65
 20
4.2
 30
0.0
 11
4.8
 21
4.2
 31
0.0
  0
LINE
  8
Layer-0
  6
CONTINUOUS
 62
    11
  5
24
 10
4.550001
 20
3.5
 30
0.0
 11
4.8
 21
3.5
 31
0.0
  0
LINE
  8
Layer-0
  6
CONTINUOUS
 62
    11
  5
25
 10
4.3
 20
2.9
 30
0.0
 11
4.3
 21
2.85
 31
0.0
  0
ARC
  8
Layer-0
  6
CONTINUOUS
 62
    11
  5
26
 10
4.3
 20
2.8
 30
0.0
 40
0.05
 50
270.0
 51
450.0
  0
ARC
  8
Layer-0
  6
CONTINUOUS
 62
    11
  5
27
 10
4.3
 20
2.7
 30
0.0
 40
0.05
 50
270.0
 51
450.0
  0
ARC
  8
Layer-0
  6
CONTINUOUS
 62
    11
  5
28
 10
4.3
 20
2.6
 30
0.0
 40
0.05
 50
270.0
 51
450.0
  0
ARC
  8
Layer-0
  6
CONTINUOUS
 62
    11
  5
29
 10
4.3
 20
2.5
 30
0.0
 40
0.05
 50
270.0
 51
450.0
  0
LINE
  8
Layer-0
  6
CONTINUOUS
 62
    11
  5
2A
 10
4.3
 20
2.45
 30
0.0
 11
4.3
 21
2.4
 31
0.0
  0
LINE
  8
Layer-0
  6
CONTINUOUS
 62
    11
  5
2B
 10
4.4
 20
2.85
 30
0.0
 11
4.4
 21
2.45
 31
0.0
  0
LINE
  8
Layer-0
  6
CONTINUOUS
 62
    11
  5
2C
 10
4.45
 20
2.85
 30
0.0
 11
4.45
 21
2.45
 31
0.0
  0
LINE
  8
Layer-0
  6
CONTINUOUS
 62
    11
  5
2D
 10
4.550001
 20
2.9
 30
0.0
 11
4.550001
 21
2.85
 31
0.0
  0
ARC
  8
Layer-0
  6
CONTINUOUS
 62
    11
  5
2E
 10
4.550001
 20
2.8
 30
0.0
 40
0.05
 50
90.0
 51
270.0
  0
ARC
  8
Layer-0
  6
CONTINUOUS
 62
    11
  5
2F
 10
4.550001
 20
2.7
 30
0.0
 40
0.05
 50
90.0
 51
270.0
  0
ARC
  8
Layer-0
  6
CONTINUOUS
 62
    11
  5
30
 10
4.550001
 20
2.6
 30
0.0
 40
0.05
 50
90.0
 51
270.0
  0
ARC
  8
Layer-0
  6
CONTINUOUS
 62
    11
  5
31
 10
4.550001
 20
2.5
 30
0.0
 40
0.05
 50
90.0
 51
270.0
  0
LINE
  8
Layer-0
  6
CONTINUOUS
 62
    11
  5
32
 10
4.550001
 20
2.45
 30
0.0
 11
4.550001
 21
2.4
 31
0.0
  0
LINE
  8
Layer-0
  6
CONTINUOUS
 62
    11
  5
33
 10
4.7
 20
2.9
 30
0.0
 11
4.7
 21
3.1
 31
0.0
  0
LINE
  8
Layer-0
  6
CONTINUOUS
 62
    11
  5
34
 10
4.7
 20
3.1
 30
0.0
 11
4.9
 21
3.1
 31
0.0
  0
LINE
  8
Layer-0
  6
CONTINUOUS
 62
    11
  5
35
 10
4.9
 20
3.1
 30
0.0
 11
4.9
 21
3.4
 31
0.0
  0
LINE
  8
Layer-0
  6
CONTINUOUS
 62
    11
  5
36
 10
5.7
 20
3.0
 30
0.0
 11
5.7
 21
2.6
 31
0.0
  0
LINE
  8
Layer-0
  6
CONTINUOUS
 62
    11
  5
37
 10
5.2
 20
3.0
 30
0.0
 11
5.2
 21
3.4
 31
0.0
  0
LINE
  8
Layer-0
  6
CONTINUOUS
 62
    11
  5
38
 10
5.5
 20
3.0
 30
0.0
 11
5.5
 21
3.4
 31
0.0
  0
LINE
  8
Layer-0
  6
CONTINUOUS
 62
    11
  5
39
 10
4.550001
 20
2.4
 30
0.0
 11
5.3
 21
2.4
 31
0.0
  0
LINE
  8
Layer-0
  6
CONTINUOUS
 62
    11
  5
3A
 10
5.3
 20
2.4
 30
0.0
 11
5.3
 21
2.6
 31
0.0
  0
LINE
  8
Layer-0
  6
CONTINUOUS
 62
    11
  5
3B
 10
4.3
 20
2.9
 30
0.0
 11
3.8
 21
2.9
 31
0.0
  0
LINE
  8
Layer-0
  6
CONTINUOUS
 62
    11
  5
3C
 10
3.8
 20
2.9
 30
0.0
 11
3.8
 21
3.8
 31
0.0
  0
LINE
  8
Layer-0
  6
CONTINUOUS
 62
    11
  5
3D
 10
3.8
 20
2.9
 30
0.0
 11
3.6
 21
2.9
 31
0.0
  0
LINE
  8
Layer-0
  6
CONTINUOUS
 62
    11
  5
3E
 10
3.6
 20
2.9
 30
0.0
 11
3.6
 21
3.2
 31
0.0
  0
LINE
  8
Layer-0
  6
CONTINUOUS
 62
    11
  5
3F
 10
3.6
 20
3.2
 30
0.0
 11
3.0
 21
3.2
 31
0.0
  0
LINE
  8
Layer-0
  6
CONTINUOUS
 62
    11
  5
40
 10
3.0
 20
3.2
 30
0.0
 11
3.0
 21
2.6
 31
0.0
  0
LINE
  8
Layer-0
  6
CONTINUOUS
 62
    11
  5
41
 10
3.0
 20
2.6
 30
0.0
 11
3.6
 21
2.6
 31
0.0
  0
LINE
  8
Layer-0
  6
CONTINUOUS
 62
    11
  5
42
 10
3.6
 20
2.6
 30
0.0
 11
3.6
 21
2.9
 31
0.0
  0
LINE
  8
Layer-0
  6
CONTINUOUS
 62
    11
  5
43
 10
3.0
 20
3.1
 30
0.0
 11
1.8
 21
3.1
 31
0.0
  0
LINE
  8
Layer-0
  6
CONTINUOUS
 62
    11
  5
44
 10
3.0
 20
2.7
 30
0.0
 11
1.8
 21
2.7
 31
0.0
  0
LINE
  8
Layer-0
  6
CONTINUOUS
 62
    11
  5
45
 10
1.8
 20
3.5
 30
0.0
 11
2.2
 21
3.5
 31
0.0
  0
LINE
  8
Layer-0
  6
CONTINUOUS
 62
    11
  5
46
 10
4.3
 20
2.4
 30
0.0
 11
2.2
 21
2.4
 31
0.0
  0
LINE
  8
Layer-0
  6
CONTINUOUS
 62
    11
  5
47
 10
4.3
 20
3.5
 30
0.0
 11
2.2
 21
3.5
 31
0.0
  0
LINE
  8
Layer-0
  6
CONTINUOUS
 62
    11
  5
48
 10
2.8
 20
2.7
 30
0.0
 11
2.8
 21
3.3
 31
0.0
  0
LINE
  8
Layer-0
  6
CONTINUOUS
 62
    11
  5
49
 10
4.8
 20
2.9
 30
0.0
 11
4.8
 21
3.0
 31
0.0
  0
LINE
  8
Layer-0
  6
CONTINUOUS
 62
    11
  5
4A
 10
4.8
 20
3.0
 30
0.0
 11
5.7
 21
3.0
 31
0.0
  0
LINE
  8
Layer-0
  6
CONTINUOUS
 62
    11
  5
4B
 10
5.7
 20
2.6
 30
0.0
 11
4.8
 21
2.6
 31
0.0
  0
LINE
  8
Layer-0
  6
CONTINUOUS
 62
    11
  5
4C
 10
4.8
 20
2.6
 30
0.0
 11
4.8
 21
2.9
 31
0.0
  0
LINE
  8
Layer-0
  6
CONTINUOUS
 62
    11
  5
4D
 10
4.550001
 20
2.9
 30
0.0
 11
4.8
 21
2.9
 31
0.0
  0
TEXT
  8
Layer-0
  6
CONTINUOUS
 62
    11
  5
4E
 10
2.400002
 20
3.879999
 30
0.0
 40
0.08
  1
+
  7
VC-TEXTSTYLE0
  0
TEXT
  8
Layer-0
  6
CONTINUOUS
 62
    11
  5
4F
 10
2.4
 20
4.05
 30
0.0
 40
0.08
  1
-
  7
VC-TEXTSTYLE0
  0
TEXT
  8
Layer-0
  6
CONTINUOUS
 62
    11
  5
50
 10
2.1
 20
2.75
 30
0.0
 40
0.08
  1
-
  7
VC-TEXTSTYLE0
  0
LINE
  8
Layer-0
  6
CONTINUOUS
 62
    11
  5
51
 10
2.1
 20
3.1
 30
0.0
 11
2.1
 21
3.1
 31
0.0
  0
TEXT
  8
Layer-0
  6
CONTINUOUS
 62
    11
  5
52
 10
2.1
 20
3.15
 30
0.0
 40
0.08
  1
+
  7
VC-TEXTSTYLE0
  0
LINE
  8
Layer-0
  6
CONTINUOUS
 62
    11
  5
53
 10
2.6
 20
3.1
 30
0.0
 11
2.6
 21
3.3
 31
0.0
  0
LINE
  8
Layer-0
  6
CONTINUOUS
 62
    11
  5
54
 10
1.8
 20
4.5
 30
0.0
 11
1.6
 21
4.5
 31
0.0
  0
LINE
  8
Layer-0
  6
CONTINUOUS
 62
    11
  5
55
 10
1.6
 20
4.5
 30
0.0
 11
1.6
 21
4.1
 31
0.0
  0
LINE
  8
Layer-0
  6
CONTINUOUS
 62
    11
  5
56
 10
1.6
 20
4.1
 30
0.0
 11
1.8
 21
4.1
 31
0.0
  0
LINE
  8
Layer-0
  6
CONTINUOUS
 62
    11
  5
57
 10
1.8
 20
3.9
 30
0.0
 11
1.4
 21
3.9
 31
0.0
  0
LINE
  8
Layer-0
  6
CONTINUOUS
 62
    11
  5
58
 10
1.3
 20
3.85
 30
0.0
 11
1.25
 21
3.95
 31
0.0
  0
LINE
  8
Layer-0
  6
CONTINUOUS
 62
    11
  5
59
 10
1.25
 20
3.95
 30
0.0
 11
1.2
 21
3.85
 31
0.0
  0
LINE
  8
Layer-0
  6
CONTINUOUS
 62
    11
  5
5A
 10
1.2
 20
3.85
 30
0.0
 11
1.15
 21
3.95
 31
0.0
  0
LINE
  8
Layer-0
  6
CONTINUOUS
 62
    11
  5
5B
 10
1.15
 20
3.95
 30
0.0
 11
1.1
 21
3.85
 31
0.0
  0
LINE
  8
Layer-0
  6
CONTINUOUS
 62
    11
  5
5C
 10
1.1
 20
3.85
 30
0.0
 11
1.05
 21
3.95
 31
0.0
  0
LINE
  8
Layer-0
  6
CONTINUOUS
 62
    11
  5
5D
 10
1.05
 20
3.95
 30
0.0
 11
1.0
 21
3.85
 31
0.0
  0
LINE
  8
Layer-0
  6
CONTINUOUS
 62
    11
  5
5E
 10
1.3
 20
3.85
 30
0.0
 11
1.35
 21
3.95
 31
0.0
  0
LINE
  8
Layer-0
  6
CONTINUOUS
 62
    11
  5
5F
 10
0.8
 20
3.9
 30
0.0
 11
0.975
 21
3.9
 31
0.0
  0
LINE
  8
Layer-0
  6
CONTINUOUS
 62
    11
  5
60
 10
1.0
 20
3.85
 30
0.0
 11
0.975
 21
3.9
 31
0.0
  0
LINE
  8
Layer-0
  6
CONTINUOUS
 62
    11
  5
61
 10
1.4
 20
3.9
 30
0.0
 11
1.375
 21
3.9
 31
0.0
  0
LINE
  8
Layer-0
  6
CONTINUOUS
 62
    11
  5
62
 10
1.35
 20
3.95
 30
0.0
 11
1.375
 21
3.9
 31
0.0
  0
LINE
  8
Layer-0
  6
CONTINUOUS
 62
    11
  5
63
 10
1.8
 20
3.5
 30
0.0
 11
0.8
 21
3.5
 31
0.0
  0
LINE
  8
Layer-0
  6
CONTINUOUS
 62
    11
  5
64
 10
1.8
 20
4.8
 30
0.0
 11
6.4
 21
4.8
 31
0.0
  0
LINE
  8
Layer-0
  6
CONTINUOUS
 62
    11
  5
65
 10
6.4
 20
4.8
 30
0.0
 11
6.4
 21
1.8
 31
0.0
  0
LINE
  8
Layer-0
  6
CONTINUOUS
 62
    11
  5
66
 10
6.4
 20
1.8
 30
0.0
 11
1.8
 21
1.8
 31
0.0
  0
LINE
  8
Layer-0
  6
CONTINUOUS
 62
    11
  5
67
 10
5.3
 20
2.4
 30
0.0
 11
5.2
 21
2.4
 31
0.0
  0
LINE
  8
Layer-0
  6
CONTINUOUS
 62
    11
  5
68
 10
5.2
 20
2.4
 30
0.0
 11
7.0
 21
2.4
 31
0.0
  0
LINE
  8
Layer-0
  6
CONTINUOUS
 62
    11
  5
69
 10
5.65
 20
4.0
 30
0.0
 11
7.0
 21
4.0
 31
0.0
  0
LINE
  8
Layer-0
  6
CONTINUOUS
 62
    11
  5
6A
 10
5.7
 20
2.8
 30
0.0
 11
7.0
 21
2.8
 31
0.0
  0
LINE
  8
Layer-0
  6
CONTINUOUS
 62
    11
  5
6B
 10
5.65
 20
3.6
 30
0.0
 11
7.0
 21
3.6
 31
0.0
  0
LINE
  8
Layer-0
  6
CONTINUOUS
 62
    11
  5
6C
 10
4.3
 20
4.1
 30
0.0
 11
4.5
 21
4.1
 31
0.0
  0
LINE
  8
Layer-0
  6
CONTINUOUS
 62
    11
  5
6D
 10
4.5
 20
2.3
 30
0.0
 11
4.3
 21
2.3
 31
0.0
  0
LINE
  8
Layer-0
  6
CONTINUOUS
 62
    11
  5
6E
 10
4.5
 20
4.1
 30
0.0
 11
4.425
 21
4.125
 31
0.0
  0
LINE
  8
Layer-0
  6
CONTINUOUS
 62
    11
  5
6F
 10
4.425
 20
4.125
 30
0.0
 11
4.425
 21
4.075
 31
0.0
  0
LINE
  8
Layer-0
  6
CONTINUOUS
 62
    11
  5
70
 10
4.425
 20
4.075
 30
0.0
 11
4.5
 21
4.1
 31
0.0
  0
LINE
  8
Layer-0
  6
CONTINUOUS
 62
    11
  5
71
 10
4.9
 20
3.4
 30
0.0
 11
4.875
 21
3.35
 31
0.0
  0
LINE
  8
Layer-0
  6
CONTINUOUS
 62
    11
  5
72
 10
4.875
 20
3.35
 30
0.0
 11
4.9
 21
3.35
 31
0.0
  0
LINE
  8
Layer-0
  6
CONTINUOUS
 62
    11
  5
73
 10
5.2
 20
3.4
 30
0.0
 11
5.175
 21
3.35
 31
0.0
  0
LINE
  8
Layer-0
  6
CONTINUOUS
 62
    11
  5
74
 10
5.175
 20
3.35
 30
0.0
 11
5.2
 21
3.35
 31
0.0
  0
LINE
  8
Layer-0
  6
CONTINUOUS
 62
    11
  5
75
 10
5.5
 20
3.4
 30
0.0
 11
5.475
 21
3.35
 31
0.0
  0
LINE
  8
Layer-0
  6
CONTINUOUS
 62
    11
  5
76
 10
5.475
 20
3.35
 30
0.0
 11
5.5
 21
3.35
 31
0.0
  0
CIRCLE
  8
Layer-0
  6
CONTINUOUS
 62
    11
  5
77
 10
4.7
 20
2.9
 30
0.0
 40
0.0125
  0
LINE
  8
Layer-0
  6
CONTINUOUS
 62
    11
  5
78
 10
4.3
 20
2.3
 30
0.0
 11
4.4
 21
2.325
 31
0.0
  0
LINE
  8
Layer-0
  6
CONTINUOUS
 62
    11
  5
79
 10
4.4
 20
2.325
 30
0.0
 11
4.4
 21
2.275
 31
0.0
  0
LINE
  8
Layer-0
  6
CONTINUOUS
 62
    11
  5
7A
 10
4.4
 20
2.275
 30
0.0
 11
4.3
 21
2.3
 31
0.0
  0
CIRCLE
  8
Layer-0
  6
CONTINUOUS
 62
    11
  5
7B
 10
5.3
 20
2.4
 30
0.0
 40
0.0125
  0
CIRCLE
  8
Layer-0
  6
CONTINUOUS
 62
    11
  5
7C
 10
3.8
 20
2.9
 30
0.0
 40
0.0125
  0
CIRCLE
  8
Layer-0
  6
CONTINUOUS
 62
    11
  5
7D
 10
2.8
 20
2.7
 30
0.0
 40
0.0125
  0
CIRCLE
  8
Layer-0
  6
CONTINUOUS
 62
    11
  5
7E
 10
2.6
 20
3.1
 30
0.0
 40
0.0125
  0
LINE
  8
Layer-0
  6
CONTINUOUS
 62
    11
  5
7F
 10
3.8
 20
3.8
 30
0.0
 11
3.775
 21
3.75
 31
0.0
  0
LINE
  8
Layer-0
  6
CONTINUOUS
 62
    11
  5
80
 10
3.775
 20
3.75
 30
0.0
 11
3.8
 21
3.75
 31
0.0
  0
LINE
  8
Layer-0
  6
CONTINUOUS
 62
    11
  5
81
 10
2.8
 20
3.3
 30
0.0
 11
2.775
 21
3.25
 31
0.0
  0
LINE
  8
Layer-0
  6
CONTINUOUS
 62
    11
  5
82
 10
2.775
 20
3.25
 30
0.0
 11
2.8
 21
3.25
 31
0.0
  0
LINE
  8
Layer-0
  6
CONTINUOUS
 62
    11
  5
83
 10
2.6
 20
3.3
 30
0.0
 11
2.575
 21
3.25
 31
0.0
  0
LINE
  8
Layer-0
  6
CONTINUOUS
 62
    11
  5
84
 10
2.575
 20
3.25
 30
0.0
 11
2.6
 21
3.25
 31
0.0
  0
LINE
  8
Layer-0
  6
CONTINUOUS
 62
    11
  5
85
 10
1.8
 20
2.7
 30
0.0
 11
1.2
 21
2.7
 31
0.0
  0
LINE
  8
Layer-0
  6
CONTINUOUS
 62
    11
  5
86
 10
1.8
 20
3.1
 30
0.0
 11
1.2
 21
3.1
 31
0.0
  0
TEXT
  8
Layer-0
  6
CONTINUOUS
 62
    11
  5
87
 10
1.820004
 20
3.119089
 30
0.0
 40
0.08
  1
36
  7
VC-TEXTSTYLE0
  0
TEXT
  8
Layer-0
  6
CONTINUOUS
 62
    11
  5
88
 10
6.530093
 20
2.851058
 30
0.0
 40
0.08
  1
+
  7
VC-TEXTSTYLE0
  0
CIRCLE
  8
Layer-0
  6
CONTINUOUS
 62
    11
  5
89
 10
3.0
 20
4.0
 30
0.0
 40
0.025
  0
CIRCLE
  8
Layer-0
  6
CONTINUOUS
 62
    11
  5
8A
 10
2.6
 20
3.1
 30
0.0
 40
0.025
  0
CIRCLE
  8
Layer-0
  6
CONTINUOUS
 62
    11
  5
8B
 10
2.8
 20
2.7
 30
0.0
 40
0.0125
  0
CIRCLE
  8
Layer-0
  6
CONTINUOUS
 62
    11
  5
8C
 10
2.8
 20
2.7
 30
0.0
 40
0.025
  0
CIRCLE
  8
Layer-0
  6
CONTINUOUS
 62
    11
  5
8D
 10
3.8
 20
2.9
 30
0.0
 40
0.0125
  0
CIRCLE
  8
Layer-0
  6
CONTINUOUS
 62
    11
  5
8E
 10
3.8
 20
2.9
 30
0.0
 40
0.0125
  0
CIRCLE
  8
Layer-0
  6
CONTINUOUS
 62
    11
  5
8F
 10
3.8
 20
2.9
 30
0.0
 40
0.025
  0
CIRCLE
  8
Layer-0
  6
CONTINUOUS
 62
    11
  5
90
 10
4.7
 20
2.9
 30
0.0
 40
0.0125
  0
CIRCLE
  8
Layer-0
  6
CONTINUOUS
 62
    11
  5
91
 10
4.7
 20
2.9
 30
0.0
 40
0.0125
  0
CIRCLE
  8
Layer-0
  6
CONTINUOUS
 62
    11
  5
92
 10
4.7
 20
2.9
 30
0.0
 40
0.0125
  0
CIRCLE
  8
Layer-0
  6
CONTINUOUS
 62
    11
  5
93
 10
4.7
 20
2.9
 30
0.0
 40
0.025
  0
CIRCLE
  8
Layer-0
  6
CONTINUOUS
 62
    11
  5
94
 10
5.3
 20
2.4
 30
0.0
 40
0.0125
  0
CIRCLE
  8
Layer-0
  6
CONTINUOUS
 62
    11
  5
95
 10
5.3
 20
2.4
 30
0.0
 40
0.0125
  0
CIRCLE
  8
Layer-0
  6
CONTINUOUS
 62
    11
  5
96
 10
5.3
 20
2.4
 30
0.0
 40
0.0125
  0
CIRCLE
  8
Layer-0
  6
CONTINUOUS
 62
    11
  5
97
 10
5.3
 20
2.4
 30
0.0
 40
0.0125
  0
CIRCLE
  8
Layer-0
  6
CONTINUOUS
 62
    11
  5
98
 10
5.3
 20
2.4
 30
0.0
 40
0.025
  0
LINE
  8
Layer-0
  6
CONTINUOUS
 62
    11
  5
99
 10
2.05
 20
2.4
 30
0.0
 11
2.05
 21
3.5
 31
0.0
  0
CIRCLE
  8
Layer-0
  6
CONTINUOUS
 62
    11
  5
9A
 10
2.05
 20
3.5
 30
0.0
 40
0.0125
  0
CIRCLE
  8
Layer-0
  6
CONTINUOUS
 62
    11
  5
9B
 10
2.05
 20
2.4
 30
0.0
 40
0.0125
  0
CIRCLE
  8
Layer-0
  6
CONTINUOUS
 62
    11
  5
9C
 10
2.05
 20
2.4
 30
0.0
 40
0.0125
  0
CIRCLE
  8
Layer-0
  6
CONTINUOUS
 62
    11
  5
9D
 10
2.05
 20
2.4
 30
0.0
 40
0.0125
  0
CIRCLE
  8
Layer-0
  6
CONTINUOUS
 62
    11
  5
9E
 10
2.05
 20
2.4
 30
0.0
 40
0.025
  0
LINE
  8
Layer-0
  6
CONTINUOUS
 62
    11
  5
9F
 10
2.05
 20
2.4
 30
0.0
 11
2.05
 21
2.2
 31
0.0
  0
LINE
  8
Layer-0
  6
CONTINUOUS
 62
    11
  5
A0
 10
2.05
 20
2.2
 30
0.0
 11
1.95
 21
2.2
 31
0.0
  0
LINE
  8
Layer-0
  6
CONTINUOUS
 62
    11
  5
A1
 10
1.95
 20
2.2
 30
0.0
 11
2.05
 21
2.2
 31
0.0
  0
LINE
  8
Layer-0
  6
CONTINUOUS
 62
    11
  5
A2
 10
2.05
 20
2.2
 30
0.0
 11
2.15
 21
2.2
 31
0.0
  0
LINE
  8
Layer-0
  6
CONTINUOUS
 62
    11
  5
A3
 10
2.15
 20
2.2
 30
0.0
 11
2.1
 21
2.1
 31
0.0
  0
LINE
  8
Layer-0
  6
CONTINUOUS
 62
    11
  5
A4
 10
2.05
 20
2.2
 30
0.0
 11
2.0
 21
2.1
 31
0.0
  0
LINE
  8
Layer-0
  6
CONTINUOUS
 62
    11
  5
A5
 10
1.95
 20
2.2
 30
0.0
 11
1.9
 21
2.1
 31
0.0
  0
LINE
  8
Layer-0
  6
CONTINUOUS
 62
    11
  5
A6
 10
2.2
 20
2.4
 30
0.0
 11
2.05
 21
2.4
 31
0.0
  0
CIRCLE
  8
Layer-0
  6
CONTINUOUS
 62
    11
  5
A7
 10
2.05
 20
3.5
 30
0.0
 40
0.0125
  0
CIRCLE
  8
Layer-0
  6
CONTINUOUS
 62
    11
  5
A8
 10
2.05
 20
3.5
 30
0.0
 40
0.0125
  0
CIRCLE
  8
Layer-0
  6
CONTINUOUS
 62
    11
  5
A9
 10
2.05
 20
3.5
 30
0.0
 40
0.0125
  0
CIRCLE
  8
Layer-0
  6
CONTINUOUS
 62
    11
  5
AA
 10
2.05
 20
3.5
 30
0.0
 40
0.025
  0
TEXT
  8
Layer-0
  6
CONTINUOUS
 62
    11
  5
AB
 10
6.15
 20
4.05
 30
0.0
 40
0.08
  1
19
  7
VC-TEXTSTYLE0
  0
TEXT
  8
Layer-0
  6
CONTINUOUS
 62
    11
  5
AC
 10
6.14
 20
3.68
 30
0.0
 40
0.08
  1
18
  7
VC-TEXTSTYLE0
  0
TEXT
  8
Layer-0
  6
CONTINUOUS
 62
    11
  5
AD
 10
6.450093
 20
3.691057
 30
0.0
 40
0.08
  1
LO
  7
VC-TEXTSTYLE0
  0
TEXT
  8
Layer-0
  6
CONTINUOUS
 62
    11
  5
AE
 10
6.450093
 20
4.051057
 30
0.0
 40
0.08
  1
HI
  7
VC-TEXTSTYLE0
  0
TEXT
  8
Layer-0
  6
CONTINUOUS
 62
    11
  5
AF
 10
6.770093
 20
3.811057
 30
0.0
 40
0.08
  1
V OUT
  7
VC-TEXTSTYLE0
  0
TEXT
  8
Layer-0
  6
CONTINUOUS
 62
    11
  5
B0
 10
6.610093
 20
2.851058
 30
0.0
 40
0.08
  1
15 V DC Supply
  7
VC-TEXTSTYLE0
  0
TEXT
  8
Layer-0
  6
CONTINUOUS
 62
    11
  5
B1
 10
6.14
 20
2.480001
 30
0.0
 40
0.08
  1
22
  7
VC-TEXTSTYLE0
  0
TEXT
  8
Layer-0
  6
CONTINUOUS
 62
    11
  5
B2
 10
6.46
 20
2.480001
 30
0.0
 40
0.08
  1
Power Return
  7
VC-TEXTSTYLE0
  0
TEXT
  8
Layer-0
  6
CONTINUOUS
 62
    11
  5
B3
 10
6.14
 20
2.840001
 30
0.0
 40
0.08
  1
20
  7
VC-TEXTSTYLE0
  0
TEXT
  8
Layer-0
  6
CONTINUOUS
 62
    11
  5
B4
 10
4.88
 20
2.8
 30
0.0
 40
0.08
  1
Oscillator
  7
VC-TEXTSTYLE0
  0
TEXT
  8
Layer-0
  6
CONTINUOUS
 62
    11
  5
B5
 10
5.039999
 20
3.76
 30
0.0
 40
0.08
  1
Demod.
  7
VC-TEXTSTYLE0
  0
TEXT
  8
Layer-0
  6
CONTINUOUS
 62
    11
  5
B6
 10
3.040002
 20
3.04
 30
0.0
 40
0.08
  1
Rect.
  7
VC-TEXTSTYLE0
  0
TEXT
  8
Layer-0
  6
CONTINUOUS
 62
    11
  5
B7
 10
3.200002
 20
2.92
 30
0.0
 40
0.08
  1
and
  7
VC-TEXTSTYLE0
  0
TEXT
  8
Layer-0
  6
CONTINUOUS
 62
    11
  5
B8
 10
3.040002
 20
2.8
 30
0.0
 40
0.08
  1
Filter
  7
VC-TEXTSTYLE0
  0
TEXT
  8
Layer-0
  6
CONTINUOUS
 62
    11
  5
B9
 10
3.28
 20
4.0
 30
0.0
 40
0.08
  1
Modulator
  7
VC-TEXTSTYLE0
  0
TEXT
  8
Layer-0
  6
CONTINUOUS
 62
    11
  5
BA
 10
1.900004
 20
4.52
 30
0.0
 40
0.08
  1
38
  7
VC-TEXTSTYLE0
  0
TEXT
  8
Layer-0
  6
CONTINUOUS
 62
    11
  5
BB
 10
1.900004
 20
4.16
 30
0.0
 40
0.08
  1
3
  7
VC-TEXTSTYLE0
  0
TEXT
  8
Layer-0
  6
CONTINUOUS
 62
    11
  5
BC
 10
1.900004
 20
3.93247
 30
0.0
 40
0.08
  1
1
  7
VC-TEXTSTYLE0
  0
TEXT
  8
Layer-0
  6
CONTINUOUS
 62
    11
  5
BD
 10
1.900004
 20
3.56
 30
0.0
 40
0.08
  1
2
  7
VC-TEXTSTYLE0
  0
TEXT
  8
Layer-0
  6
CONTINUOUS
 62
    11
  5
BE
 10
2.18
 20
3.15
 30
0.0
 40
0.08
  1
7.5V
  7
VC-TEXTSTYLE0
  0
TEXT
  8
Layer-0
  6
CONTINUOUS
 62
    11
  5
BF
 10
2.18
 20
2.75
 30
0.0
 40
0.08
  1
7.5V
  7
VC-TEXTSTYLE0
  0
TEXT
  8
Layer-0
  6
CONTINUOUS
 62
    11
  5
C0
 10
1.820004
 20
2.720001
 30
0.0
 40
0.08
  1
37
  7
VC-TEXTSTYLE0
  0
TEXT
  8
Layer-0
  6
CONTINUOUS
 62
    11
  5
C1
 10
1.11
 20
4.55
 30
0.0
 40
0.08
  1
Feedback
  7
VC-TEXTSTYLE0
  0
TEXT
  8
Layer-0
  6
CONTINUOUS
 62
    11
  5
C2
 10
1.11
 20
4.070001
 30
0.0
 40
0.08
  1
In (-)
  7
VC-TEXTSTYLE0
  0
TEXT
  8
Layer-0
  6
CONTINUOUS
 62
    11
  5
C3
 10
1.03
 20
3.710001
 30
0.0
 40
0.08
  1
2.0K
  7
VC-TEXTSTYLE0
  0
TEXT
  8
Layer-0
  6
CONTINUOUS
 62
    11
  5
C4
 10
1.34
 20
3.535
 30
0.0
 40
0.08
  1
In
  7
VC-TEXTSTYLE0
  0
TEXT
  8
Layer-0
  6
CONTINUOUS
 62
    11
  5
C5
 10
1.26
 20
3.415
 30
0.0
 40
0.08
  1
common
  7
VC-TEXTSTYLE0
  0
TEXT
  8
Layer-0
  6
CONTINUOUS
 62
    11
  5
C6
 10
0.27
 20
3.85
 30
0.0
 40
0.08
  1
In (+)
  7
VC-TEXTSTYLE0
  0
TEXT
  8
Layer-0
  6
CONTINUOUS
 62
    11
  5
C7
 10
0.27
 20
3.49
 30
0.0
 40
0.08
  1
Common
  7
VC-TEXTSTYLE0
  0
TEXT
  8
Layer-0
  6
CONTINUOUS
 62
    11
  5
C8
 10
0.45
 20
3.65
 30
0.0
 40
0.08
  1
   
  7
VC-TEXTSTYLE0
  0
TEXT
  8
Layer-0
  6
CONTINUOUS
 62
    11
  5
C9
 10
0.05
 20
3.65
 30
0.0
 40
0.08
  1
Signal In
  7
VC-TEXTSTYLE0
  0
TEXT
  8
Layer-0
  6
CONTINUOUS
 62
    11
  5
CA
 10
0.54
 20
2.865001
 30
0.0
 40
0.08
  1
voltage supply
  7
VC-TEXTSTYLE0
  0
TEXT
  8
Layer-0
  6
CONTINUOUS
 62
    11
  5
CB
 10
1.26
 20
3.175
 30
0.0
 40
0.08
  1
+
  7
VC-TEXTSTYLE0
  0
TEXT
  8
Layer-0
  6
CONTINUOUS
 62
    11
  5
CC
 10
1.26
 20
2.575001
 30
0.0
 40
0.08
  1
-
  7
VC-TEXTSTYLE0
  0
TEXT
  8
Layer-0
  6
CONTINUOUS
 62
    11
  5
CD
 10
0.54
 20
2.745001
 30
0.0
 40
0.08
  1
    output
  7
VC-TEXTSTYLE0
  0
TEXT
  8
Layer-0
  6
CONTINUOUS
 62
    11
  5
CE
 10
0.54
 20
2.985001
 30
0.0
 40
0.08
  1
   Isolated
  7
VC-TEXTSTYLE0
  0
TEXT
  8
Layer-0
  6
CONTINUOUS
 62
    11
  5
CF
 10
4.159999
 20
4.24
 30
0.0
 40
0.08
  1
Signal
  7
VC-TEXTSTYLE0
  0
TEXT
  8
Layer-0
  6
CONTINUOUS
 62
    11
  5
D0
 10
4.239999
 20
2.080002
 30
0.0
 40
0.08
  1
Power
  7
VC-TEXTSTYLE0
  0
TEXT
  8
Layer-0
  6
CONTINUOUS
 62
    11
  5
D1
 10
1.349999
 20
5.35
 30
0.0
 40
0.15
  1
 
  7
VC-TEXTSTYLE0
  0
TEXT
  8
Layer-0
  6
CONTINUOUS
 62
    11
  5
D2
 10
1.649999
 20
5.35
 30
0.0
 40
0.15
  1
 
  7
VC-TEXTSTYLE0
  0
TEXT
  8
Layer-0
  6
CONTINUOUS
 62
    11
  5
D3
 10
0.149999
 20
5.35
 30
0.0
 40
0.15
  1
FIGURE 1
  7
VC-TEXTSTYLE0
  0
TEXT
  8
Layer-0
  6
CONTINUOUS
 62
    11
  5
D4
 10
1.499999
 20
5.35
 30
0.0
 40
0.15
  1
- Analog Devices AD202 Isolation Amplifier
  7
VC-TEXTSTYLE0
  0
TEXT
  8
Layer-0
  6
CONTINUOUS
 62
    11
  5
D5
 10
2.099999
 20
5.125
 30
0.0
 40
0.15
  1
(DIP package configuration)
  7
VC-TEXTSTYLE0
  0
TEXT
  8
Layer-0
  6
CONTINUOUS
 62
    11
  5
D6
 10
2.4
 20
1.23
 30
0.0
 40
0.08
  1
2) Resistor on input (+) is external, for input protection.
  7
VC-TEXTSTYLE0
  0
TEXT
  8
Layer-0
  6
CONTINUOUS
 62
    11
  5
D7
 10
2.4
 20
1.11
 30
0.0
 40
0.08
  1
3) Output impedance should be greater than 500K ohms.
  7
VC-TEXTSTYLE0
  0
TEXT
  8
Layer-0
  6
CONTINUOUS
 62
    11
  5
D8
 10
2.4
 20
0.99
 30
0.0
 40
0.08
  1
4) Maximum output voltage is +/- 5 volts.
  7
VC-TEXTSTYLE0
  0
TEXT
  8
Layer-0
  6
CONTINUOUS
 62
    11
  5
D9
 10
2.4
 20
0.87
 30
0.0
 40
0.08
  1
5) Circuit, as shown, has unity gain.
  7
VC-TEXTSTYLE0
  0
TEXT
  8
Layer-0
  6
CONTINUOUS
 62
    11
  5
DA
 10
2.4
 20
1.35
 30
0.0
 40
0.08
  1
1) Jumper between pins 38 and 3 is external, for feedback.
  7
VC-TEXTSTYLE0
  0
TEXT
  8
Layer-0
  6
CONTINUOUS
 62
    11
  5
DB
 10
1.8
 20
1.35
 30
0.0
 40
0.08
  1
NOTES:
  7
VC-TEXTSTYLE0
  0
LINE
  8
Layer-0
  6
CONTINUOUS
 62
    11
  5
DC
 10
4.5
 20
4.1
 30
0.0
 11
4.425
 21
4.075
 31
0.0
  0
LINE
  8
Layer-0
  6
CONTINUOUS
 62
    11
  5
DD
 10
4.425
 20
4.075
 30
0.0
 11
4.425
 21
4.125
 31
0.0
  0
LINE
  8
Layer-0
  6
CONTINUOUS
 62
    11
  5
DE
 10
4.425
 20
4.125
 30
0.0
 11
4.5
 21
4.1
 31
0.0
  0
LINE
  8
Layer-0
  6
CONTINUOUS
 62
    11
  5
DF
 10
4.875
 20
3.35
 30
0.0
 11
4.9
 21
3.4
 31
0.0
  0
LINE
  8
Layer-0
  6
CONTINUOUS
 62
    11
  5
E0
 10
4.9
 20
3.4
 30
0.0
 11
4.9
 21
3.35
 31
0.0
  0
LINE
  8
Layer-0
  6
CONTINUOUS
 62
    11
  5
E1
 10
4.9
 20
3.35
 30
0.0
 11
4.875
 21
3.35
 31
0.0
  0
LINE
  8
Layer-0
  6
CONTINUOUS
 62
    11
  5
E2
 10
5.175
 20
3.35
 30
0.0
 11
5.2
 21
3.4
 31
0.0
  0
LINE
  8
Layer-0
  6
CONTINUOUS
 62
    11
  5
E3
 10
5.2
 20
3.4
 30
0.0
 11
5.2
 21
3.35
 31
0.0
  0
LINE
  8
Layer-0
  6
CONTINUOUS
 62
    11
  5
E4
 10
5.2
 20
3.35
 30
0.0
 11
5.175
 21
3.35
 31
0.0
  0
LINE
  8
Layer-0
  6
CONTINUOUS
 62
    11
  5
E5
 10
5.475
 20
3.35
 30
0.0
 11
5.5
 21
3.4
 31
0.0
  0
LINE
  8
Layer-0
  6
CONTINUOUS
 62
    11
  5
E6
 10
5.5
 20
3.4
 30
0.0
 11
5.5
 21
3.35
 31
0.0
  0
LINE
  8
Layer-0
  6
CONTINUOUS
 62
    11
  5
E7
 10
5.5
 20
3.35
 30
0.0
 11
5.475
 21
3.35
 31
0.0
  0
CIRCLE
  8
Layer-0
  6
CONTINUOUS
 62
    11
  5
E8
 10
4.7
 20
2.9
 30
0.0
 40
0.0125
  0
LINE
  8
Layer-0
  6
CONTINUOUS
 62
    11
  5
E9
 10
4.3
 20
2.3
 30
0.0
 11
4.4
 21
2.275
 31
0.0
  0
LINE
  8
Layer-0
  6
CONTINUOUS
 62
    11
  5
EA
 10
4.4
 20
2.275
 30
0.0
 11
4.4
 21
2.325
 31
0.0
  0
LINE
  8
Layer-0
  6
CONTINUOUS
 62
    11
  5
EB
 10
4.4
 20
2.325
 30
0.0
 11
4.3
 21
2.3
 31
0.0
  0
CIRCLE
  8
Layer-0
  6
CONTINUOUS
 62
    11
  5
EC
 10
5.3
 20
2.4
 30
0.0
 40
0.0125
  0
CIRCLE
  8
Layer-0
  6
CONTINUOUS
 62
    11
  5
ED
 10
3.8
 20
2.9
 30
0.0
 40
0.0125
  0
CIRCLE
  8
Layer-0
  6
CONTINUOUS
 62
    11
  5
EE
 10
2.8
 20
2.7
 30
0.0
 40
0.0125
  0
CIRCLE
  8
Layer-0
  6
CONTINUOUS
 62
    11
  5
EF
 10
2.6
 20
3.1
 30
0.0
 40
0.0125
  0
LINE
  8
Layer-0
  6
CONTINUOUS
 62
    11
  5
F0
 10
3.775
 20
3.75
 30
0.0
 11
3.8
 21
3.8
 31
0.0
  0
LINE
  8
Layer-0
  6
CONTINUOUS
 62
    11
  5
F1
 10
3.8
 20
3.8
 30
0.0
 11
3.8
 21
3.75
 31
0.0
  0
LINE
  8
Layer-0
  6
CONTINUOUS
 62
    11
  5
F2
 10
3.8
 20
3.75
 30
0.0
 11
3.775
 21
3.75
 31
0.0
  0
LINE
  8
Layer-0
  6
CONTINUOUS
 62
    11
  5
F3
 10
2.775
 20
3.25
 30
0.0
 11
2.8
 21
3.3
 31
0.0
  0
LINE
  8
Layer-0
  6
CONTINUOUS
 62
    11
  5
F4
 10
2.8
 20
3.3
 30
0.0
 11
2.8
 21
3.25
 31
0.0
  0
LINE
  8
Layer-0
  6
CONTINUOUS
 62
    11
  5
F5
 10
2.8
 20
3.25
 30
0.0
 11
2.775
 21
3.25
 31
0.0
  0
LINE
  8
Layer-0
  6
CONTINUOUS
 62
    11
  5
F6
 10
2.575
 20
3.25
 30
0.0
 11
2.6
 21
3.3
 31
0.0
  0
LINE
  8
Layer-0
  6
CONTINUOUS
 62
    11
  5
F7
 10
2.6
 20
3.3
 30
0.0
 11
2.6
 21
3.25
 31
0.0
  0
LINE
  8
Layer-0
  6
CONTINUOUS
 62
    11
  5
F8
 10
2.6
 20
3.25
 30
0.0
 11
2.575
 21
3.25
 31
0.0
  0
CIRCLE
  8
Layer-0
  6
CONTINUOUS
 62
    11
  5
F9
 10
3.0
 20
4.0
 30
0.0
 40
0.025
  0
CIRCLE
  8
Layer-0
  6
CONTINUOUS
 62
    11
  5
FA
 10
2.6
 20
3.1
 30
0.0
 40
0.025
  0
CIRCLE
  8
Layer-0
  6
CONTINUOUS
 62
    11
  5
FB
 10
2.8
 20
2.7
 30
0.0
 40
0.0125
  0
CIRCLE
  8
Layer-0
  6
CONTINUOUS
 62
    11
  5
FC
 10
2.8
 20
2.7
 30
0.0
 40
0.025
  0
CIRCLE
  8
Layer-0
  6
CONTINUOUS
 62
    11
  5
FD
 10
3.8
 20
2.9
 30
0.0
 40
0.0125
  0
CIRCLE
  8
Layer-0
  6
CONTINUOUS
 62
    11
  5
FE
 10
3.8
 20
2.9
 30
0.0
 40
0.0125
  0
CIRCLE
  8
Layer-0
  6
CONTINUOUS
 62
    11
  5
FF
 10
3.8
 20
2.9
 30
0.0
 40
0.025
  0
CIRCLE
  8
Layer-0
  6
CONTINUOUS
 62
    11
  5
100
 10
4.7
 20
2.9
 30
0.0
 40
0.0125
  0
CIRCLE
  8
Layer-0
  6
CONTINUOUS
 62
    11
  5
101
 10
4.7
 20
2.9
 30
0.0
 40
0.0125
  0
CIRCLE
  8
Layer-0
  6
CONTINUOUS
 62
    11
  5
102
 10
4.7
 20
2.9
 30
0.0
 40
0.0125
  0
CIRCLE
  8
Layer-0
  6
CONTINUOUS
 62
    11
  5
103
 10
4.7
 20
2.9
 30
0.0
 40
0.025
  0
CIRCLE
  8
Layer-0
  6
CONTINUOUS
 62
    11
  5
104
 10
5.3
 20
2.4
 30
0.0
 40
0.0125
  0
CIRCLE
  8
Layer-0
  6
CONTINUOUS
 62
    11
  5
105
 10
5.3
 20
2.4
 30
0.0
 40
0.0125
  0
CIRCLE
  8
Layer-0
  6
CONTINUOUS
 62
    11
  5
106
 10
5.3
 20
2.4
 30
0.0
 40
0.0125
  0
CIRCLE
  8
Layer-0
  6
CONTINUOUS
 62
    11
  5
107
 10
5.3
 20
2.4
 30
0.0
 40
0.0125
  0
CIRCLE
  8
Layer-0
  6
CONTINUOUS
 62
    11
  5
108
 10
5.3
 20
2.4
 30
0.0
 40
0.025
  0
CIRCLE
  8
Layer-0
  6
CONTINUOUS
 62
    11
  5
109
 10
2.05
 20
3.5
 30
0.0
 40
0.0125
  0
CIRCLE
  8
Layer-0
  6
CONTINUOUS
 62
    11
  5
10A
 10
2.05
 20
2.4
 30
0.0
 40
0.0125
  0
CIRCLE
  8
Layer-0
  6
CONTINUOUS
 62
    11
  5
10B
 10
2.05
 20
2.4
 30
0.0
 40
0.0125
  0
CIRCLE
  8
Layer-0
  6
CONTINUOUS
 62
    11
  5
10C
 10
2.05
 20
2.4
 30
0.0
 40
0.0125
  0
CIRCLE
  8
Layer-0
  6
CONTINUOUS
 62
    11
  5
10D
 10
2.05
 20
2.4
 30
0.0
 40
0.025
  0
CIRCLE
  8
Layer-0
  6
CONTINUOUS
 62
    11
  5
10E
 10
2.05
 20
3.5
 30
0.0
 40
0.0125
  0
CIRCLE
  8
Layer-0
  6
CONTINUOUS
 62
    11
  5
10F
 10
2.05
 20
3.5
 30
0.0
 40
0.0125
  0
CIRCLE
  8
Layer-0
  6
CONTINUOUS
 62
    11
  5
110
 10
2.05
 20
3.5
 30
0.0
 40
0.0125
  0
CIRCLE
  8
Layer-0
  6
CONTINUOUS
 62
    11
  5
111
 10
2.05
 20
3.5
 30
0.0
 40
0.025
  0
ENDSEC
  0
EOF
