  0
SECTION
  2
HEADER
  9
$ACADVER
  1
AC1009
  9
$INSBASE
 10
0.0
 20
0.0
 30
0.0
  9
$EXTMIN
 10
0.8
 20
-1.900001
 30
0.0
  9
$EXTMAX
 10
13.110003
 20
10.1
 30
0.0
  9
$LIMMIN
 10
0.0
 20
0.0
  9
$LIMMAX
 10
12.0
 20
9.0
  9
$ORTHOMODE
 70
     0
  9
$REGENMODE
 70
     1
  9
$FILLMODE
 70
     1
  9
$QTEXTMODE
 70
     0
  9
$MIRRTEXT
 70
     1
  9
$DRAGMODE
 70
     2
  9
$LTSCALE
 40
1.0
  9
$OSMODE
 70
     0
  9
$ATTMODE
 70
     1
  9
$TEXTSIZE
 40
0.2
  9
$TRACEWID
 40
0.05
  9
$TEXTSTYLE
  7
STANDARD
  9
$CLAYER
  8
0
  9
$CELTYPE
  6
CONTINUOUS
  9
$CECOLOR
 62
 32767
  9
$DIMSCALE
 40
1.0
  9
$DIMASZ
 40
0.18
  9
$DIMEXO
 40
0.0625
  9
$DIMDLI
 40
0.38
  9
$DIMRND
 40
0.0
  9
$DIMDLE
 40
0.0
  9
$DIMEXE
 40
0.18
  9
$DIMTP
 40
0.0
  9
$DIMTM
 40
0.0
  9
$DIMTXT
 40
0.18
  9
$DIMCEN
 40
0.09
  9
$DIMTSZ
 40
0.0
  9
$DIMTOL
 70
     0
  9
$DIMLIM
 70
     0
  9
$DIMTIH
 70
     1
  9
$DIMTOH
 70
     1
  9
$DIMSE1
 70
     0
  9
$DIMSE2
 70
     0
  9
$DIMTAD
 70
     0
  9
$DIMZIN
 70
     0
  9
$DIMBLK
  1

  9
$DIMASO
 70
     1
  9
$DIMSHO
 70
     1
  9
$DIMPOST
  1

  9
$DIMAPOST
  1

  9
$DIMALT
 70
     0
  9
$DIMALTD
 70
     2
  9
$DIMALTF
 40
25.4
  9
$DIMLFAC
 40
1.0
  9
$DIMTOFL
 70
     0
  9
$DIMTVP
 40
0.0
  9
$DIMTIX
 70
     0
  9
$DIMSOXD
 70
     0
  9
$DIMSAH
 70
     0
  9
$DIMBLK1
  1

  9
$DIMBLK2
  1

  9
$DIMSTYLE
  2
*UNNAMED
  9
$DIMCLRD
 70
     0
  9
$DIMCLRE
 70
     0
  9
$DIMCLRT
 70
     0
  9
$DIMTFAC
 40
1.0
  9
$DIMGAP
 40
0.09
  9
$LUNITS
 70
     2
  9
$LUPREC
 70
     4
  9
$AXISMODE
 70
     0
  9
$AXISUNIT
 10
0.0
 20
0.0
  9
$SKETCHINC
 40
0.1
  9
$FILLETRAD
 40
0.0
  9
$AUNITS
 70
     0
  9
$AUPREC
 70
     0
  9
$MENU
  1
acad
  9
$ELEVATION
 40
0.0
  9
$PELEVATION
 40
0.0
  9
$THICKNESS
 40
0.0
  9
$LIMCHECK
 70
     0
  9
$BLIPMODE
 70
     1
  9
$CHAMFERA
 40
0.0
  9
$CHAMFERB
 40
0.0
  9
$SKPOLY
 70
     0
  9
$TDCREATE
 40
0.000000000
  9
$TDUPDATE
 40
0.000000000
  9
$TDINDWG
 40
0.0000000000
  9
$TDUSRTIMER
 40
0.0000000000
  9
$USRTIMER
 70
     1
  9
$ANGBASE
 50
0.0
  9
$ANGDIR
 70
     0
  9
$PDMODE
 70
     2
  9
$PDSIZE
 40
0.0
  9
$PLINEWID
 40
0.0
  9
$COORDS
 70
     0
  9
$SPLFRAME
 70
     0
  9
$SPLINETYPE
 70
     6
  9
$SPLINESEGS
 70
     8
  9
$ATTDIA
 70
     0
  9
$ATTREQ
 70
     1
  9
$HANDLING
 70
     0
  9
$HANDSEED
  5
             A03
  9
$SURFTAB1
 70
     6
  9
$SURFTAB2
 70
     6
  9
$SURFTYPE
 70
     6
  9
$SURFU
 70
     6
  9
$SURFV
 70
     6
  9
$UCSNAME
  2

  9
$UCSORG
 10
0.0
 20
0.0
 30
0.0
  9
$UCSXDIR
 10
1.0
 20
0.0
 30
0.0
  9
$UCSYDIR
 10
0.0
 20
1.0
 30
0.0
  9
$PUCSNAME
  2

  9
$PUCSORG
 10
0.0
 20
0.0
 30
0.0
  9
$PUCSXDIR
 10
1.0
 20
0.0
 30
0.0
  9
$PUCSYDIR
 10
0.0
 20
1.0
 30
0.0
  9
$USERI1
 70
     0
  9
$USERI2
 70
     0
  9
$USERI3
 70
     0
  9
$USERI4
 70
     0
  9
$USERI5
 70
     0
  9
$USERR1
 40
0.0
  9
$USERR2
 40
0.0
  9
$USERR3
 40
0.0
  9
$USERR4
 40
0.0
  9
$USERR5
 40
0.0
  9
$WORLDVIEW
 70
     1
  9
$SHADEDGE
 70
     3
  9
$SHADEDIF
 70
    70
  9
$TILEMODE
 70
     1
  9
$MAXACTVP
 70
    16
  9
$PINSBASE
 10
0.0
 20
0.0
 30
0.0
  9
$PLIMCHECK
 70
     0
  9
$PEXTMIN
 10
-1.000000E+20
 20
-1.000000E+20
 30
-1.000000E+20
  9
$PEXTMAX
 10
-1.000000E+20
 20
-1.000000E+20
 30
-1.000000E+20
  9
$PLIMMIN
 10
0.0
 20
0.0
  9
$PLIMMAX
 10
12.0
 20
9.0
  9
$UNITMODE
 70
     0
  9
$VISRETAIN
 70
     0
  0
ENDSEC
  0
SECTION
  2
TABLES
  0
TABLE
  2
VPORT
 70
     1
  0
VPORT
  2
*ACTIVE
 70
     0
 10
0.0
 20
0.0
 11
1.0
 21
1.0
 12
36.0
 22
36.0
 13
0.0
 23
0.0
 14
1.0
 24
1.0
 15
0.0
 25
0.0
 16
0.0
 26
0.0
 36
1.0
 17
0.0
 27
0.0
 37
0.0
 40
76.0
 41
1.604229
 42
50.0
 43
0.0
 44
0.0
 50
0.0
 51
0.0
 71
     0
 72
   100
 73
     1
 74
     1
 75
     0
 76
     0
 77
     0
 78
     0
  0
ENDTAB
  0
TABLE
  2
LTYPE
 70
     3
  0
LTYPE
  2
CONTINUOUS
 70
     0
  3
Visual CADD Translation
 72
    65
 73
     0
 40
0.0
  0
LTYPE
  2
TYPE___1
 70
     0
  3
Visual CADD Translation
 72
    65
 73
     2
 40
1.0
 49
0.87
 49
-0.13
  0
LTYPE
  2
TYPE___1
 70
     0
  3
Visual CADD Translation
 72
    65
 73
     2
 40
1.0
 49
0.87
 49
-0.13
  0
ENDTAB
  0
TABLE
  2
LAYER
 70
     2
  0
LAYER
  2
WIRING
 70
     0
 62
    12
  6
CONTINUOUS
  0
LAYER
  2
COMPON
 70
     0
 62
    12
  6
CONTINUOUS
  0
ENDTAB
  0
TABLE
  2
STYLE
 70
     1
  0
STYLE
  2
VC-TEXTSTYLE0
 70
     0
 40
0.2
 41
1.0
 50
0.0
 71
     0
 42
0.2
  3
TXT
  4

  0
ENDTAB
  0
TABLE
  2
APPID
 70
     0
  0
ENDTAB
  0
TABLE
  2
VIEW
 70
     0
  0
ENDTAB
  0
ENDSEC
  0
SECTION
  2
BLOCKS
  0
BLOCK
  8
WIRING
  6
CONTINUOUS
 62
     7
  5
1
  2
XCON-DOT
 70
     0
 10
0.0
 20
0.0
 30
0.0
  3
XCON-DOT
  0
CIRCLE
  8
WIRING
  6
CONTINUOUS
 62
     7
  5
2
 10
0.0
 20
0.0
 30
0.0
 40
0.01
  0
ENDBLK
  8
WIRING
  6
CONTINUOUS
 62
     7
  5
3
  0
ENDSEC
  0
SECTION
  2
ENTITIES
  0
TEXT
  8
WIRING
  6
CONTINUOUS
 62
     7
  5
4
 10
12.955003
 20
5.749792
 30
0.0
 40
0.05
  1
SION
  7
VC-TEXTSTYLE0
  0
LINE
  8
COMPON
  6
CONTINUOUS
 62
     7
  5
5
 10
2.694997
 20
7.8
 30
0.0
 11
2.744997
 21
7.8
 31
0.0
  0
LINE
  8
COMPON
  6
CONTINUOUS
 62
     7
  5
6
 10
2.694997
 20
7.6
 30
0.0
 11
2.744997
 21
7.6
 31
0.0
  0
LINE
  8
COMPON
  6
CONTINUOUS
 62
     7
  5
7
 10
2.744997
 20
7.450001
 30
0.0
 11
2.744997
 21
7.950001
 31
0.0
  0
LINE
  8
COMPON
  6
CONTINUOUS
 62
     7
  5
8
 10
2.744997
 20
7.950001
 30
0.0
 11
3.244997
 21
7.700001
 31
0.0
  0
LINE
  8
COMPON
  6
CONTINUOUS
 62
     7
  5
9
 10
3.244997
 20
7.700001
 30
0.0
 11
2.744997
 21
7.450001
 31
0.0
  0
LINE
  8
COMPON
  6
CONTINUOUS
 62
     7
  5
A
 10
2.769998
 20
7.6
 30
0.0
 11
2.819997
 21
7.6
 31
0.0
  0
LINE
  8
COMPON
  6
CONTINUOUS
 62
     7
  5
B
 10
2.795
 20
7.625
 30
0.0
 11
2.795
 21
7.575001
 31
0.0
  0
LINE
  8
COMPON
  6
CONTINUOUS
 62
     7
  5
C
 10
2.769998
 20
7.8
 30
0.0
 11
2.819997
 21
7.8
 31
0.0
  0
LINE
  8
COMPON
  6
CONTINUOUS
 62
     7
  5
D
 10
2.444997
 20
8.1
 30
0.0
 11
2.494997
 21
8.1
 31
0.0
  0
LINE
  8
COMPON
  6
CONTINUOUS
 62
     7
  5
E
 10
2.494997
 20
8.1
 30
0.0
 11
2.519998
 21
8.150002
 31
0.0
  0
LINE
  8
COMPON
  6
CONTINUOUS
 62
     7
  5
F
 10
2.519998
 20
8.150002
 30
0.0
 11
2.569997
 21
8.050001
 31
0.0
  0
LINE
  8
COMPON
  6
CONTINUOUS
 62
     7
  5
10
 10
2.569997
 20
8.050001
 30
0.0
 11
2.619997
 21
8.150002
 31
0.0
  0
LINE
  8
COMPON
  6
CONTINUOUS
 62
     7
  5
11
 10
2.619997
 20
8.150002
 30
0.0
 11
2.669996
 21
8.050001
 31
0.0
  0
LINE
  8
COMPON
  6
CONTINUOUS
 62
     7
  5
12
 10
2.669996
 20
8.050001
 30
0.0
 11
2.719999
 21
8.150002
 31
0.0
  0
LINE
  8
COMPON
  6
CONTINUOUS
 62
     7
  5
13
 10
2.719999
 20
8.150002
 30
0.0
 11
2.769998
 21
8.050001
 31
0.0
  0
LINE
  8
COMPON
  6
CONTINUOUS
 62
     7
  5
14
 10
2.769998
 20
8.050001
 30
0.0
 11
2.794996
 21
8.1
 31
0.0
  0
LINE
  8
COMPON
  6
CONTINUOUS
 62
     7
  5
15
 10
2.794996
 20
8.1
 30
0.0
 11
2.844999
 21
8.1
 31
0.0
  0
LINE
  8
COMPON
  6
CONTINUOUS
 62
     7
  5
16
 10
2.644998
 20
8.050001
 30
0.0
 11
2.644998
 21
7.950001
 31
0.0
  0
LINE
  8
COMPON
  6
CONTINUOUS
 62
     7
  5
17
 10
2.67
 20
8.000001
 30
0.0
 11
2.644998
 21
8.050001
 31
0.0
  0
LINE
  8
WIRING
  6
CONTINUOUS
 62
     7
  5
18
 10
2.67
 20
8.000001
 30
0.0
 11
2.619997
 21
8.000001
 31
0.0
  0
LINE
  8
WIRING
  6
CONTINUOUS
 62
     7
  5
19
 10
2.694997
 20
7.8
 30
0.0
 11
2.644998
 21
7.8
 31
0.0
  0
LINE
  8
WIRING
  6
CONTINUOUS
 62
     7
  5
1A
 10
2.644998
 20
7.8
 30
0.0
 11
2.644998
 21
7.95
 31
0.0
  0
LINE
  8
WIRING
  6
CONTINUOUS
 62
     7
  5
1B
 10
2.844999
 20
8.1
 30
0.0
 11
3.394998
 21
8.1
 31
0.0
  0
LINE
  8
WIRING
  6
CONTINUOUS
 62
     7
  5
1C
 10
3.394998
 20
7.7
 30
0.0
 11
3.244997
 21
7.7
 31
0.0
  0
LINE
  8
COMPON
  6
CONTINUOUS
 62
     7
  5
1D
 10
1.944997
 20
8.1
 30
0.0
 11
1.969999
 21
8.150001
 31
0.0
  0
LINE
  8
COMPON
  6
CONTINUOUS
 62
     7
  5
1E
 10
1.969999
 20
8.150001
 30
0.0
 11
2.019998
 21
8.05
 31
0.0
  0
LINE
  8
COMPON
  6
CONTINUOUS
 62
     7
  5
1F
 10
2.019998
 20
8.05
 30
0.0
 11
2.069997
 21
8.150001
 31
0.0
  0
LINE
  8
COMPON
  6
CONTINUOUS
 62
     7
  5
20
 10
2.069997
 20
8.150001
 30
0.0
 11
2.119997
 21
8.05
 31
0.0
  0
LINE
  8
COMPON
  6
CONTINUOUS
 62
     7
  5
21
 10
2.119997
 20
8.05
 30
0.0
 11
2.17
 21
8.150001
 31
0.0
  0
LINE
  8
COMPON
  6
CONTINUOUS
 62
     7
  5
22
 10
2.17
 20
8.150001
 30
0.0
 11
2.219999
 21
8.05
 31
0.0
  0
LINE
  8
COMPON
  6
CONTINUOUS
 62
     7
  5
23
 10
2.219999
 20
8.05
 30
0.0
 11
2.244997
 21
8.1
 31
0.0
  0
LINE
  8
COMPON
  6
CONTINUOUS
 62
     7
  5
24
 10
2.244997
 20
8.1
 30
0.0
 11
2.295
 21
8.1
 31
0.0
  0
LINE
  8
WIRING
  6
CONTINUOUS
 62
     7
  5
25
 10
2.444997
 20
8.1
 30
0.0
 11
2.295
 21
8.1
 31
0.0
  0
LINE
  8
WIRING
  6
CONTINUOUS
 62
     7
  5
26
 10
2.644998
 20
7.6
 30
0.0
 11
2.694997
 21
7.6
 31
0.0
  0
LINE
  8
WIRING
  6
CONTINUOUS
 62
     7
  5
27
 10
1.944997
 20
8.1
 30
0.0
 11
1.794998
 21
8.1
 31
0.0
  0
LINE
  8
WIRING
  6
CONTINUOUS
 62
     7
  5
28
 10
1.794998
 20
8.1
 30
0.0
 11
1.644998
 21
8.1
 31
0.0
  0
LINE
  8
WIRING
  6
CONTINUOUS
 62
     7
  5
29
 10
1.644998
 20
8.1
 30
0.0
 11
1.644998
 21
7.900001
 31
0.0
  0
LINE
  8
WIRING
  6
CONTINUOUS
 62
     7
  5
2A
 10
1.644998
 20
7.900001
 30
0.0
 11
1.594999
 21
7.900001
 31
0.0
  0
LINE
  8
WIRING
  6
CONTINUOUS
 62
     7
  5
2B
 10
1.594999
 20
7.900001
 30
0.0
 11
1.644998
 21
7.8
 31
0.0
  0
LINE
  8
WIRING
  6
CONTINUOUS
 62
     7
  5
2C
 10
1.644998
 20
7.8
 30
0.0
 11
1.694997
 21
7.900001
 31
0.0
  0
LINE
  8
WIRING
  6
CONTINUOUS
 62
     7
  5
2D
 10
1.694997
 20
7.900001
 30
0.0
 11
1.594999
 21
7.900001
 31
0.0
  0
LINE
  8
COMPON
  6
CONTINUOUS
 62
     7
  5
2E
 10
2.994997
 20
7.85
 30
0.0
 11
2.994997
 21
7.900001
 31
0.0
  0
TEXT
  8
COMPON
  6
CONTINUOUS
 62
     7
  5
2F
 10
2.994997
 20
7.95
 30
0.0
 40
0.05
  1
+5
  7
VC-TEXTSTYLE0
  0
LINE
  8
COMPON
  6
CONTINUOUS
 62
     7
  5
30
 10
2.994997
 20
7.55
 30
0.0
 11
2.994997
 21
7.45
 31
0.0
  0
LINE
  8
COMPON
  6
CONTINUOUS
 62
     7
  5
31
 10
2.994997
 20
7.45
 30
0.0
 11
3.045
 21
7.45
 31
0.0
  0
LINE
  8
COMPON
  6
CONTINUOUS
 62
     7
  5
32
 10
3.045
 20
7.45
 30
0.0
 11
2.994997
 21
7.35
 31
0.0
  0
LINE
  8
COMPON
  6
CONTINUOUS
 62
     7
  5
33
 10
2.994997
 20
7.35
 30
0.0
 11
2.944997
 21
7.45
 31
0.0
  0
LINE
  8
COMPON
  6
CONTINUOUS
 62
     7
  5
34
 10
2.944997
 20
7.45
 30
0.0
 11
2.994997
 21
7.45
 31
0.0
  0
LINE
  8
WIRING
  6
CONTINUOUS
 62
     7
  5
35
 10
3.4
 20
8.1
 30
0.0
 11
3.4
 21
7.7
 31
0.0
  0
LINE
  8
WIRING
  6
CONTINUOUS
 62
     7
  5
36
 10
3.350001
 20
8.099999
 30
0.0
 11
3.4
 21
8.099999
 31
0.0
  0
LINE
  8
COMPON
  6
CONTINUOUS
 62
     7
  5
37
 10
1.5
 20
7.600001
 30
0.0
 11
1.525001
 21
7.650001
 31
0.0
  0
LINE
  8
COMPON
  6
CONTINUOUS
 62
     7
  5
38
 10
1.525001
 20
7.650001
 30
0.0
 11
1.575001
 21
7.550001
 31
0.0
  0
LINE
  8
COMPON
  6
CONTINUOUS
 62
     7
  5
39
 10
1.575001
 20
7.550001
 30
0.0
 11
1.625
 21
7.650001
 31
0.0
  0
LINE
  8
COMPON
  6
CONTINUOUS
 62
     7
  5
3A
 10
1.625
 20
7.650001
 30
0.0
 11
1.674999
 21
7.550001
 31
0.0
  0
LINE
  8
COMPON
  6
CONTINUOUS
 62
     7
  5
3B
 10
1.674999
 20
7.550001
 30
0.0
 11
1.725002
 21
7.650001
 31
0.0
  0
LINE
  8
COMPON
  6
CONTINUOUS
 62
     7
  5
3C
 10
1.725002
 20
7.650001
 30
0.0
 11
1.775001
 21
7.550001
 31
0.0
  0
LINE
  8
COMPON
  6
CONTINUOUS
 62
     7
  5
3D
 10
1.775001
 20
7.550001
 30
0.0
 11
1.799999
 21
7.600001
 31
0.0
  0
LINE
  8
COMPON
  6
CONTINUOUS
 62
     7
  5
3E
 10
1.799999
 20
7.600001
 30
0.0
 11
1.850002
 21
7.600001
 31
0.0
  0
LINE
  8
WIRING
  6
CONTINUOUS
 62
     7
  5
3F
 10
1.5
 20
7.600001
 30
0.0
 11
1.35
 21
7.600001
 31
0.0
  0
LINE
  8
WIRING
  6
CONTINUOUS
 62
     7
  5
40
 10
2.75
 20
7.600001
 30
0.0
 11
2.550001
 21
7.600001
 31
0.0
  0
LINE
  8
COMPON
  6
CONTINUOUS
 62
     7
  5
41
 10
2.550001
 20
7.450002
 30
0.0
 11
2.600001
 21
7.425
 31
0.0
  0
LINE
  8
COMPON
  6
CONTINUOUS
 62
     7
  5
42
 10
2.600001
 20
7.425
 30
0.0
 11
2.5
 21
7.375001
 31
0.0
  0
LINE
  8
COMPON
  6
CONTINUOUS
 62
     7
  5
43
 10
2.5
 20
7.375001
 30
0.0
 11
2.600001
 21
7.325002
 31
0.0
  0
LINE
  8
COMPON
  6
CONTINUOUS
 62
     7
  5
44
 10
2.600001
 20
7.325002
 30
0.0
 11
2.5
 21
7.275002
 31
0.0
  0
LINE
  8
COMPON
  6
CONTINUOUS
 62
     7
  5
45
 10
2.5
 20
7.275002
 30
0.0
 11
2.600001
 21
7.224999
 31
0.0
  0
LINE
  8
COMPON
  6
CONTINUOUS
 62
     7
  5
46
 10
2.600001
 20
7.224999
 30
0.0
 11
2.5
 21
7.175
 31
0.0
  0
LINE
  8
COMPON
  6
CONTINUOUS
 62
     7
  5
47
 10
2.5
 20
7.175
 30
0.0
 11
2.550001
 21
7.150002
 31
0.0
  0
LINE
  8
COMPON
  6
CONTINUOUS
 62
     7
  5
48
 10
2.550001
 20
7.150002
 30
0.0
 11
2.550001
 21
7.099999
 31
0.0
  0
LINE
  8
WIRING
  6
CONTINUOUS
 62
     7
  5
49
 10
2.550001
 20
7.450002
 30
0.0
 11
2.550001
 21
7.600001
 31
0.0
  0
LINE
  8
WIRING
  6
CONTINUOUS
 62
     7
  5
4A
 10
2.550001
 20
7.600001
 30
0.0
 11
2.300001
 21
7.600001
 31
0.0
  0
LINE
  8
WIRING
  6
CONTINUOUS
 62
     7
  5
4B
 10
2.300001
 20
7.600001
 30
0.0
 11
2.300001
 21
7.450001
 31
0.0
  0
LINE
  8
WIRING
  6
CONTINUOUS
 62
     7
  5
4C
 10
2.300001
 20
7.300001
 30
0.0
 11
2.200001
 21
7.450001
 31
0.0
  0
LINE
  8
WIRING
  6
CONTINUOUS
 62
     7
  5
4D
 10
2.550001
 20
7.1
 30
0.0
 11
2.550001
 21
6.700001
 31
0.0
  0
LINE
  8
WIRING
  6
CONTINUOUS
 62
     7
  5
4E
 10
2.550001
 20
6.700001
 30
0.0
 11
2.300001
 21
6.700001
 31
0.0
  0
LINE
  8
WIRING
  6
CONTINUOUS
 62
     7
  5
4F
 10
2.300001
 20
7.600001
 30
0.0
 11
2.100001
 21
7.600001
 31
0.0
  0
LINE
  8
WIRING
  6
CONTINUOUS
 62
     7
  5
50
 10
2.144998
 20
7.6
 30
0.0
 11
2.0
 21
7.600001
 31
0.0
  0
LINE
  8
WIRING
  6
CONTINUOUS
 62
     7
  5
51
 10
2.000002
 20
7.600001
 30
0.0
 11
2.000002
 21
7.300002
 31
0.0
  0
LINE
  8
WIRING
  6
CONTINUOUS
 62
     7
  5
52
 10
1.950002
 20
7.300002
 30
0.0
 11
2.050001
 21
7.300002
 31
0.0
  0
LINE
  8
WIRING
  6
CONTINUOUS
 62
     7
  5
53
 10
1.950002
 20
7.25
 30
0.0
 11
2.050001
 21
7.25
 31
0.0
  0
LINE
  8
WIRING
  6
CONTINUOUS
 62
     7
  5
54
 10
2.000002
 20
7.25
 30
0.0
 11
2.000002
 21
7.0
 31
0.0
  0
LINE
  8
WIRING
  6
CONTINUOUS
 62
     7
  5
55
 10
2.0
 20
6.700001
 30
0.0
 11
2.0
 21
7.000001
 31
0.0
  0
LINE
  8
WIRING
  6
CONTINUOUS
 62
     7
  5
56
 10
2.0
 20
7.600001
 30
0.0
 11
1.850001
 21
7.600001
 31
0.0
  0
LINE
  8
WIRING
  6
CONTINUOUS
 62
     7
  5
57
 10
2.0
 20
6.700001
 30
0.0
 11
2.300001
 21
6.700001
 31
0.0
  0
LINE
  8
WIRING
  6
CONTINUOUS
 62
     7
  5
58
 10
2.550001
 20
6.700001
 30
0.0
 11
2.550001
 21
6.6
 31
0.0
  0
LINE
  8
WIRING
  6
CONTINUOUS
 62
     7
  5
59
 10
2.550001
 20
6.6
 30
0.0
 11
2.5
 21
6.6
 31
0.0
  0
LINE
  8
WIRING
  6
CONTINUOUS
 62
     7
  5
5A
 10
2.5
 20
6.6
 30
0.0
 11
2.550001
 21
6.500001
 31
0.0
  0
LINE
  8
WIRING
  6
CONTINUOUS
 62
     7
  5
5B
 10
2.550001
 20
6.500001
 30
0.0
 11
2.600001
 21
6.6
 31
0.0
  0
LINE
  8
WIRING
  6
CONTINUOUS
 62
     7
  5
5C
 10
2.600001
 20
6.6
 30
0.0
 11
2.550001
 21
6.6
 31
0.0
  0
LINE
  8
COMPON
  6
CONTINUOUS
 62
     7
  5
5D
 10
2.300001
 20
7.200002
 30
0.0
 11
2.350001
 21
7.175
 31
0.0
  0
LINE
  8
COMPON
  6
CONTINUOUS
 62
     7
  5
5E
 10
2.350001
 20
7.175
 30
0.0
 11
2.25
 21
7.125001
 31
0.0
  0
LINE
  8
COMPON
  6
CONTINUOUS
 62
     7
  5
5F
 10
2.25
 20
7.125001
 30
0.0
 11
2.350001
 21
7.075002
 31
0.0
  0
LINE
  8
COMPON
  6
CONTINUOUS
 62
     7
  5
60
 10
2.350001
 20
7.075002
 30
0.0
 11
2.25
 21
7.025002
 31
0.0
  0
LINE
  8
COMPON
  6
CONTINUOUS
 62
     7
  5
61
 10
2.25
 20
7.025002
 30
0.0
 11
2.350001
 21
6.974999
 31
0.0
  0
LINE
  8
COMPON
  6
CONTINUOUS
 62
     7
  5
62
 10
2.350001
 20
6.974999
 30
0.0
 11
2.25
 21
6.925
 31
0.0
  0
LINE
  8
COMPON
  6
CONTINUOUS
 62
     7
  5
63
 10
2.25
 20
6.925
 30
0.0
 11
2.300001
 21
6.900002
 31
0.0
  0
LINE
  8
WIRING
  6
CONTINUOUS
 62
     7
  5
64
 10
2.300001
 20
7.200001
 30
0.0
 11
2.300001
 21
7.300001
 31
0.0
  0
LINE
  8
WIRING
  6
CONTINUOUS
 62
     7
  5
65
 10
2.300001
 20
6.900001
 30
0.0
 11
2.300001
 21
6.700001
 31
0.0
  0
INSERT
  8
COMPON
  6
TYPE___1
 62
     7
  5
66
  2
XCON-DOT
 10
2.300002
 20
7.450001
 30
0.0
 50
90.0
  0
INSERT
  8
COMPON
  6
TYPE___1
 62
     7
  5
67
  2
XCON-DOT
 10
2.300002
 20
7.450001
 30
0.0
 50
90.0
  0
INSERT
  8
COMPON
  6
TYPE___1
 62
     7
  5
68
  2
XCON-DOT
 10
2.300002
 20
7.450001
 30
0.0
 50
90.0
  0
INSERT
  8
COMPON
  6
TYPE___1
 62
     7
  5
69
  2
XCON-DOT
 10
2.300002
 20
7.300001
 30
0.0
 50
90.0
  0
INSERT
  8
COMPON
  6
TYPE___1
 62
     7
  5
6A
  2
XCON-DOT
 10
2.300002
 20
7.300001
 30
0.0
 50
90.0
  0
INSERT
  8
COMPON
  6
TYPE___1
 62
     7
  5
6B
  2
XCON-DOT
 10
2.300002
 20
7.300001
 30
0.0
 50
90.0
  0
LINE
  8
COMPON
  6
CONTINUOUS
 62
     7
  5
6C
 10
3.894997
 20
6.5
 30
0.0
 11
3.944997
 21
6.5
 31
0.0
  0
LINE
  8
COMPON
  6
CONTINUOUS
 62
     7
  5
6D
 10
3.894997
 20
6.300001
 30
0.0
 11
3.944997
 21
6.300001
 31
0.0
  0
LINE
  8
COMPON
  6
CONTINUOUS
 62
     7
  5
6E
 10
3.944997
 20
6.150001
 30
0.0
 11
3.944997
 21
6.650001
 31
0.0
  0
LINE
  8
COMPON
  6
CONTINUOUS
 62
     7
  5
6F
 10
3.944997
 20
6.650001
 30
0.0
 11
4.444997
 21
6.400001
 31
0.0
  0
LINE
  8
COMPON
  6
CONTINUOUS
 62
     7
  5
70
 10
4.444997
 20
6.400001
 30
0.0
 11
3.944997
 21
6.150001
 31
0.0
  0
LINE
  8
COMPON
  6
CONTINUOUS
 62
     7
  5
71
 10
3.969998
 20
6.300001
 30
0.0
 11
4.019998
 21
6.300001
 31
0.0
  0
LINE
  8
COMPON
  6
CONTINUOUS
 62
     7
  5
72
 10
3.995
 20
6.325
 30
0.0
 11
3.995
 21
6.275001
 31
0.0
  0
LINE
  8
COMPON
  6
CONTINUOUS
 62
     7
  5
73
 10
3.969998
 20
6.5
 30
0.0
 11
4.019998
 21
6.5
 31
0.0
  0
LINE
  8
COMPON
  6
CONTINUOUS
 62
     7
  5
74
 10
3.644997
 20
6.800001
 30
0.0
 11
3.694997
 21
6.800001
 31
0.0
  0
LINE
  8
COMPON
  6
CONTINUOUS
 62
     7
  5
75
 10
3.694997
 20
6.800001
 30
0.0
 11
3.719998
 21
6.850002
 31
0.0
  0
LINE
  8
COMPON
  6
CONTINUOUS
 62
     7
  5
76
 10
3.719998
 20
6.850002
 30
0.0
 11
3.769997
 21
6.750001
 31
0.0
  0
LINE
  8
COMPON
  6
CONTINUOUS
 62
     7
  5
77
 10
3.769997
 20
6.750001
 30
0.0
 11
3.819997
 21
6.850002
 31
0.0
  0
LINE
  8
COMPON
  6
CONTINUOUS
 62
     7
  5
78
 10
3.819997
 20
6.850002
 30
0.0
 11
3.869996
 21
6.750001
 31
0.0
  0
LINE
  8
COMPON
  6
CONTINUOUS
 62
     7
  5
79
 10
3.869996
 20
6.750001
 30
0.0
 11
3.919999
 21
6.850002
 31
0.0
  0
LINE
  8
COMPON
  6
CONTINUOUS
 62
     7
  5
7A
 10
3.919999
 20
6.850002
 30
0.0
 11
3.969998
 21
6.750001
 31
0.0
  0
LINE
  8
COMPON
  6
CONTINUOUS
 62
     7
  5
7B
 10
3.969998
 20
6.750001
 30
0.0
 11
3.994996
 21
6.800001
 31
0.0
  0
LINE
  8
COMPON
  6
CONTINUOUS
 62
     7
  5
7C
 10
3.994996
 20
6.800001
 30
0.0
 11
4.044999
 21
6.800001
 31
0.0
  0
LINE
  8
COMPON
  6
CONTINUOUS
 62
     7
  5
7D
 10
3.844998
 20
6.750001
 30
0.0
 11
3.844998
 21
6.650001
 31
0.0
  0
LINE
  8
COMPON
  6
CONTINUOUS
 62
     7
  5
7E
 10
3.87
 20
6.700001
 30
0.0
 11
3.844998
 21
6.750001
 31
0.0
  0
LINE
  8
WIRING
  6
CONTINUOUS
 62
     7
  5
7F
 10
3.87
 20
6.700001
 30
0.0
 11
3.819997
 21
6.700001
 31
0.0
  0
LINE
  8
WIRING
  6
CONTINUOUS
 62
     7
  5
80
 10
3.894997
 20
6.5
 30
0.0
 11
3.844998
 21
6.5
 31
0.0
  0
LINE
  8
WIRING
  6
CONTINUOUS
 62
     7
  5
81
 10
3.844998
 20
6.5
 30
0.0
 11
3.844998
 21
6.65
 31
0.0
  0
LINE
  8
WIRING
  6
CONTINUOUS
 62
     7
  5
82
 10
4.044999
 20
6.800001
 30
0.0
 11
4.594998
 21
6.800001
 31
0.0
  0
LINE
  8
WIRING
  6
CONTINUOUS
 62
     7
  5
83
 10
4.594998
 20
6.4
 30
0.0
 11
4.444997
 21
6.4
 31
0.0
  0
LINE
  8
COMPON
  6
CONTINUOUS
 62
     7
  5
84
 10
3.144997
 20
6.800001
 30
0.0
 11
3.169999
 21
6.850001
 31
0.0
  0
LINE
  8
COMPON
  6
CONTINUOUS
 62
     7
  5
85
 10
3.169999
 20
6.850001
 30
0.0
 11
3.219998
 21
6.75
 31
0.0
  0
LINE
  8
COMPON
  6
CONTINUOUS
 62
     7
  5
86
 10
3.219998
 20
6.75
 30
0.0
 11
3.269997
 21
6.850001
 31
0.0
  0
LINE
  8
COMPON
  6
CONTINUOUS
 62
     7
  5
87
 10
3.269997
 20
6.850001
 30
0.0
 11
3.319997
 21
6.75
 31
0.0
  0
LINE
  8
COMPON
  6
CONTINUOUS
 62
     7
  5
88
 10
3.319997
 20
6.75
 30
0.0
 11
3.37
 21
6.850001
 31
0.0
  0
LINE
  8
COMPON
  6
CONTINUOUS
 62
     7
  5
89
 10
3.37
 20
6.850001
 30
0.0
 11
3.419999
 21
6.75
 31
0.0
  0
LINE
  8
COMPON
  6
CONTINUOUS
 62
     7
  5
8A
 10
3.419999
 20
6.75
 30
0.0
 11
3.444997
 21
6.800001
 31
0.0
  0
LINE
  8
COMPON
  6
CONTINUOUS
 62
     7
  5
8B
 10
3.444997
 20
6.800001
 30
0.0
 11
3.495
 21
6.800001
 31
0.0
  0
LINE
  8
WIRING
  6
CONTINUOUS
 62
     7
  5
8C
 10
3.644997
 20
6.800001
 30
0.0
 11
3.495
 21
6.800001
 31
0.0
  0
LINE
  8
WIRING
  6
CONTINUOUS
 62
     7
  5
8D
 10
3.844998
 20
6.300001
 30
0.0
 11
3.894997
 21
6.300001
 31
0.0
  0
LINE
  8
WIRING
  6
CONTINUOUS
 62
     7
  5
8E
 10
3.144997
 20
6.800001
 30
0.0
 11
2.994998
 21
6.800001
 31
0.0
  0
LINE
  8
WIRING
  6
CONTINUOUS
 62
     7
  5
8F
 10
2.994998
 20
6.800001
 30
0.0
 11
2.844998
 21
6.800001
 31
0.0
  0
LINE
  8
WIRING
  6
CONTINUOUS
 62
     7
  5
90
 10
2.844998
 20
6.800001
 30
0.0
 11
2.844998
 21
6.600001
 31
0.0
  0
LINE
  8
WIRING
  6
CONTINUOUS
 62
     7
  5
91
 10
2.844998
 20
6.600001
 30
0.0
 11
2.794999
 21
6.600001
 31
0.0
  0
LINE
  8
WIRING
  6
CONTINUOUS
 62
     7
  5
92
 10
2.794999
 20
6.600001
 30
0.0
 11
2.844998
 21
6.5
 31
0.0
  0
LINE
  8
WIRING
  6
CONTINUOUS
 62
     7
  5
93
 10
2.844998
 20
6.5
 30
0.0
 11
2.894997
 21
6.600001
 31
0.0
  0
LINE
  8
WIRING
  6
CONTINUOUS
 62
     7
  5
94
 10
2.894997
 20
6.600001
 30
0.0
 11
2.794999
 21
6.600001
 31
0.0
  0
LINE
  8
COMPON
  6
CONTINUOUS
 62
     7
  5
95
 10
4.194997
 20
6.550001
 30
0.0
 11
4.194997
 21
6.600001
 31
0.0
  0
TEXT
  8
COMPON
  6
CONTINUOUS
 62
     7
  5
96
 10
4.194997
 20
6.65
 30
0.0
 40
0.05
  1
+5
  7
VC-TEXTSTYLE0
  0
LINE
  8
COMPON
  6
CONTINUOUS
 62
     7
  5
97
 10
4.194997
 20
6.25
 30
0.0
 11
4.194997
 21
6.15
 31
0.0
  0
LINE
  8
COMPON
  6
CONTINUOUS
 62
     7
  5
98
 10
4.194997
 20
6.15
 30
0.0
 11
4.245
 21
6.15
 31
0.0
  0
LINE
  8
COMPON
  6
CONTINUOUS
 62
     7
  5
99
 10
4.245
 20
6.15
 30
0.0
 11
4.194997
 21
6.050001
 31
0.0
  0
LINE
  8
COMPON
  6
CONTINUOUS
 62
     7
  5
9A
 10
4.194997
 20
6.050001
 30
0.0
 11
4.144998
 21
6.15
 31
0.0
  0
LINE
  8
COMPON
  6
CONTINUOUS
 62
     7
  5
9B
 10
4.144998
 20
6.15
 30
0.0
 11
4.194997
 21
6.15
 31
0.0
  0
LINE
  8
WIRING
  6
CONTINUOUS
 62
     7
  5
9C
 10
4.6
 20
6.800001
 30
0.0
 11
4.6
 21
6.4
 31
0.0
  0
LINE
  8
WIRING
  6
CONTINUOUS
 62
     7
  5
9D
 10
4.550001
 20
6.8
 30
0.0
 11
4.6
 21
6.8
 31
0.0
  0
LINE
  8
COMPON
  6
CONTINUOUS
 62
     7
  5
9E
 10
2.7
 20
6.300001
 30
0.0
 11
2.725001
 21
6.350001
 31
0.0
  0
LINE
  8
COMPON
  6
CONTINUOUS
 62
     7
  5
9F
 10
2.725001
 20
6.350001
 30
0.0
 11
2.775001
 21
6.250001
 31
0.0
  0
LINE
  8
COMPON
  6
CONTINUOUS
 62
     7
  5
A0
 10
2.775001
 20
6.250001
 30
0.0
 11
2.825
 21
6.350001
 31
0.0
  0
LINE
  8
COMPON
  6
CONTINUOUS
 62
     7
  5
A1
 10
2.825
 20
6.350001
 30
0.0
 11
2.874999
 21
6.250001
 31
0.0
  0
LINE
  8
COMPON
  6
CONTINUOUS
 62
     7
  5
A2
 10
2.874999
 20
6.250001
 30
0.0
 11
2.925002
 21
6.350001
 31
0.0
  0
LINE
  8
COMPON
  6
CONTINUOUS
 62
     7
  5
A3
 10
2.925002
 20
6.350001
 30
0.0
 11
2.975001
 21
6.250001
 31
0.0
  0
LINE
  8
COMPON
  6
CONTINUOUS
 62
     7
  5
A4
 10
2.975001
 20
6.250001
 30
0.0
 11
2.999999
 21
6.300001
 31
0.0
  0
LINE
  8
COMPON
  6
CONTINUOUS
 62
     7
  5
A5
 10
2.999999
 20
6.300001
 30
0.0
 11
3.050002
 21
6.300001
 31
0.0
  0
LINE
  8
WIRING
  6
CONTINUOUS
 62
     7
  5
A6
 10
2.7
 20
6.300001
 30
0.0
 11
2.55
 21
6.300001
 31
0.0
  0
LINE
  8
WIRING
  6
CONTINUOUS
 62
     7
  5
A7
 10
2.255003
 20
6.300001
 30
0.0
 11
2.550002
 21
6.300001
 31
0.0
  0
LINE
  8
WIRING
  6
CONTINUOUS
 62
     7
  5
A8
 10
3.950001
 20
6.300001
 30
0.0
 11
3.750001
 21
6.300001
 31
0.0
  0
LINE
  8
COMPON
  6
CONTINUOUS
 62
     7
  5
A9
 10
3.750001
 20
6.150002
 30
0.0
 11
3.800001
 21
6.125
 31
0.0
  0
LINE
  8
COMPON
  6
CONTINUOUS
 62
     7
  5
AA
 10
3.800001
 20
6.125
 30
0.0
 11
3.700001
 21
6.075001
 31
0.0
  0
LINE
  8
COMPON
  6
CONTINUOUS
 62
     7
  5
AB
 10
3.700001
 20
6.075001
 30
0.0
 11
3.800001
 21
6.025002
 31
0.0
  0
LINE
  8
COMPON
  6
CONTINUOUS
 62
     7
  5
AC
 10
3.800001
 20
6.025002
 30
0.0
 11
3.700001
 21
5.975003
 31
0.0
  0
LINE
  8
COMPON
  6
CONTINUOUS
 62
     7
  5
AD
 10
3.700001
 20
5.975003
 30
0.0
 11
3.800001
 21
5.925
 31
0.0
  0
LINE
  8
COMPON
  6
CONTINUOUS
 62
     7
  5
AE
 10
3.800001
 20
5.925
 30
0.0
 11
3.700001
 21
5.875
 31
0.0
  0
LINE
  8
COMPON
  6
CONTINUOUS
 62
     7
  5
AF
 10
3.700001
 20
5.875
 30
0.0
 11
3.750001
 21
5.850003
 31
0.0
  0
LINE
  8
COMPON
  6
CONTINUOUS
 62
     7
  5
B0
 10
3.750001
 20
5.850003
 30
0.0
 11
3.750001
 21
5.8
 31
0.0
  0
LINE
  8
WIRING
  6
CONTINUOUS
 62
     7
  5
B1
 10
3.750001
 20
6.150002
 30
0.0
 11
3.750001
 21
6.300002
 31
0.0
  0
LINE
  8
WIRING
  6
CONTINUOUS
 62
     7
  5
B2
 10
3.750001
 20
6.300001
 30
0.0
 11
3.500001
 21
6.300001
 31
0.0
  0
LINE
  8
WIRING
  6
CONTINUOUS
 62
     7
  5
B3
 10
3.500001
 20
6.300001
 30
0.0
 11
3.500001
 21
6.150001
 31
0.0
  0
LINE
  8
WIRING
  6
CONTINUOUS
 62
     7
  5
B4
 10
3.500001
 20
6.000001
 30
0.0
 11
3.400001
 21
6.150001
 31
0.0
  0
LINE
  8
WIRING
  6
CONTINUOUS
 62
     7
  5
B5
 10
3.750001
 20
5.800001
 30
0.0
 11
3.750001
 21
5.400001
 31
0.0
  0
LINE
  8
WIRING
  6
CONTINUOUS
 62
     7
  5
B6
 10
3.750001
 20
5.400001
 30
0.0
 11
3.500001
 21
5.400001
 31
0.0
  0
LINE
  8
WIRING
  6
CONTINUOUS
 62
     7
  5
B7
 10
3.500001
 20
6.300001
 30
0.0
 11
3.300001
 21
6.300001
 31
0.0
  0
LINE
  8
WIRING
  6
CONTINUOUS
 62
     7
  5
B8
 10
3.344998
 20
6.300001
 30
0.0
 11
3.200001
 21
6.300001
 31
0.0
  0
LINE
  8
WIRING
  6
CONTINUOUS
 62
     7
  5
B9
 10
3.200002
 20
6.300001
 30
0.0
 11
3.200002
 21
6.000002
 31
0.0
  0
LINE
  8
WIRING
  6
CONTINUOUS
 62
     7
  5
BA
 10
3.200002
 20
6.000002
 30
0.0
 11
3.150002
 21
6.000002
 31
0.0
  0
LINE
  8
WIRING
  6
CONTINUOUS
 62
     7
  5
BB
 10
3.150002
 20
6.000002
 30
0.0
 11
3.250001
 21
6.000002
 31
0.0
  0
LINE
  8
WIRING
  6
CONTINUOUS
 62
     7
  5
BC
 10
3.150002
 20
5.950001
 30
0.0
 11
3.250001
 21
5.950001
 31
0.0
  0
LINE
  8
WIRING
  6
CONTINUOUS
 62
     7
  5
BD
 10
3.200002
 20
5.950001
 30
0.0
 11
3.200002
 21
5.700001
 31
0.0
  0
LINE
  8
WIRING
  6
CONTINUOUS
 62
     7
  5
BE
 10
3.200001
 20
5.400001
 30
0.0
 11
3.200001
 21
5.700001
 31
0.0
  0
LINE
  8
WIRING
  6
CONTINUOUS
 62
     7
  5
BF
 10
3.200001
 20
6.300001
 30
0.0
 11
3.050001
 21
6.300001
 31
0.0
  0
LINE
  8
WIRING
  6
CONTINUOUS
 62
     7
  5
C0
 10
3.200001
 20
5.400001
 30
0.0
 11
3.500001
 21
5.400001
 31
0.0
  0
LINE
  8
WIRING
  6
CONTINUOUS
 62
     7
  5
C1
 10
3.750001
 20
5.400001
 30
0.0
 11
3.750001
 21
5.300001
 31
0.0
  0
LINE
  8
WIRING
  6
CONTINUOUS
 62
     7
  5
C2
 10
3.750001
 20
5.300001
 30
0.0
 11
3.700001
 21
5.300001
 31
0.0
  0
LINE
  8
WIRING
  6
CONTINUOUS
 62
     7
  5
C3
 10
3.700001
 20
5.300001
 30
0.0
 11
3.750001
 21
5.200001
 31
0.0
  0
LINE
  8
WIRING
  6
CONTINUOUS
 62
     7
  5
C4
 10
3.750001
 20
5.200001
 30
0.0
 11
3.800001
 21
5.300001
 31
0.0
  0
LINE
  8
WIRING
  6
CONTINUOUS
 62
     7
  5
C5
 10
3.800001
 20
5.300001
 30
0.0
 11
3.750001
 21
5.300001
 31
0.0
  0
LINE
  8
COMPON
  6
CONTINUOUS
 62
     7
  5
C6
 10
3.500001
 20
5.900002
 30
0.0
 11
3.550001
 21
5.875
 31
0.0
  0
LINE
  8
COMPON
  6
CONTINUOUS
 62
     7
  5
C7
 10
3.550001
 20
5.875
 30
0.0
 11
3.450001
 21
5.825001
 31
0.0
  0
LINE
  8
COMPON
  6
CONTINUOUS
 62
     7
  5
C8
 10
3.450001
 20
5.825001
 30
0.0
 11
3.550001
 21
5.775002
 31
0.0
  0
LINE
  8
COMPON
  6
CONTINUOUS
 62
     7
  5
C9
 10
3.550001
 20
5.775002
 30
0.0
 11
3.450001
 21
5.725003
 31
0.0
  0
LINE
  8
COMPON
  6
CONTINUOUS
 62
     7
  5
CA
 10
3.450001
 20
5.725003
 30
0.0
 11
3.550001
 21
5.675
 31
0.0
  0
LINE
  8
COMPON
  6
CONTINUOUS
 62
     7
  5
CB
 10
3.550001
 20
5.675
 30
0.0
 11
3.450001
 21
5.625
 31
0.0
  0
LINE
  8
COMPON
  6
CONTINUOUS
 62
     7
  5
CC
 10
3.450001
 20
5.625
 30
0.0
 11
3.500001
 21
5.600003
 31
0.0
  0
LINE
  8
WIRING
  6
CONTINUOUS
 62
     7
  5
CD
 10
3.500001
 20
5.900001
 30
0.0
 11
3.500001
 21
6.000001
 31
0.0
  0
LINE
  8
WIRING
  6
CONTINUOUS
 62
     7
  5
CE
 10
3.500001
 20
5.600001
 30
0.0
 11
3.500001
 21
5.400001
 31
0.0
  0
INSERT
  8
COMPON
  6
TYPE___1
 62
     7
  5
CF
  2
XCON-DOT
 10
3.500002
 20
6.150001
 30
0.0
 50
90.0
  0
INSERT
  8
COMPON
  6
TYPE___1
 62
     7
  5
D0
  2
XCON-DOT
 10
3.500002
 20
6.150001
 30
0.0
 50
90.0
  0
INSERT
  8
COMPON
  6
TYPE___1
 62
     7
  5
D1
  2
XCON-DOT
 10
3.500002
 20
6.150001
 30
0.0
 50
90.0
  0
INSERT
  8
COMPON
  6
TYPE___1
 62
     7
  5
D2
  2
XCON-DOT
 10
3.500002
 20
6.000001
 30
0.0
 50
90.0
  0
INSERT
  8
COMPON
  6
TYPE___1
 62
     7
  5
D3
  2
XCON-DOT
 10
3.500002
 20
6.000001
 30
0.0
 50
90.0
  0
INSERT
  8
COMPON
  6
TYPE___1
 62
     7
  5
D4
  2
XCON-DOT
 10
3.500002
 20
6.000001
 30
0.0
 50
90.0
  0
LINE
  8
COMPON
  6
CONTINUOUS
 62
     7
  5
D5
 10
2.694997
 20
5.0
 30
0.0
 11
2.744997
 21
5.0
 31
0.0
  0
LINE
  8
COMPON
  6
CONTINUOUS
 62
     7
  5
D6
 10
2.694997
 20
4.8
 30
0.0
 11
2.744997
 21
4.8
 31
0.0
  0
LINE
  8
COMPON
  6
CONTINUOUS
 62
     7
  5
D7
 10
2.744997
 20
4.650001
 30
0.0
 11
2.744997
 21
5.150001
 31
0.0
  0
LINE
  8
COMPON
  6
CONTINUOUS
 62
     7
  5
D8
 10
2.744997
 20
5.150001
 30
0.0
 11
3.244997
 21
4.900001
 31
0.0
  0
LINE
  8
COMPON
  6
CONTINUOUS
 62
     7
  5
D9
 10
3.244997
 20
4.900001
 30
0.0
 11
2.744997
 21
4.650001
 31
0.0
  0
LINE
  8
COMPON
  6
CONTINUOUS
 62
     7
  5
DA
 10
2.769998
 20
4.8
 30
0.0
 11
2.819997
 21
4.8
 31
0.0
  0
LINE
  8
COMPON
  6
CONTINUOUS
 62
     7
  5
DB
 10
2.795
 20
4.825
 30
0.0
 11
2.795
 21
4.775001
 31
0.0
  0
LINE
  8
COMPON
  6
CONTINUOUS
 62
     7
  5
DC
 10
2.769998
 20
5.0
 30
0.0
 11
2.819997
 21
5.0
 31
0.0
  0
LINE
  8
COMPON
  6
CONTINUOUS
 62
     7
  5
DD
 10
2.444997
 20
5.3
 30
0.0
 11
2.494997
 21
5.3
 31
0.0
  0
LINE
  8
COMPON
  6
CONTINUOUS
 62
     7
  5
DE
 10
2.494997
 20
5.3
 30
0.0
 11
2.519998
 21
5.350001
 31
0.0
  0
LINE
  8
COMPON
  6
CONTINUOUS
 62
     7
  5
DF
 10
2.519998
 20
5.350001
 30
0.0
 11
2.569997
 21
5.250001
 31
0.0
  0
LINE
  8
COMPON
  6
CONTINUOUS
 62
     7
  5
E0
 10
2.569997
 20
5.250001
 30
0.0
 11
2.619997
 21
5.350001
 31
0.0
  0
LINE
  8
COMPON
  6
CONTINUOUS
 62
     7
  5
E1
 10
2.619997
 20
5.350001
 30
0.0
 11
2.669996
 21
5.250001
 31
0.0
  0
LINE
  8
COMPON
  6
CONTINUOUS
 62
     7
  5
E2
 10
2.669996
 20
5.250001
 30
0.0
 11
2.719999
 21
5.350001
 31
0.0
  0
LINE
  8
COMPON
  6
CONTINUOUS
 62
     7
  5
E3
 10
2.719999
 20
5.350001
 30
0.0
 11
2.769998
 21
5.250001
 31
0.0
  0
LINE
  8
COMPON
  6
CONTINUOUS
 62
     7
  5
E4
 10
2.769998
 20
5.250001
 30
0.0
 11
2.794996
 21
5.3
 31
0.0
  0
LINE
  8
COMPON
  6
CONTINUOUS
 62
     7
  5
E5
 10
2.794996
 20
5.3
 30
0.0
 11
2.844999
 21
5.3
 31
0.0
  0
LINE
  8
COMPON
  6
CONTINUOUS
 62
     7
  5
E6
 10
2.644998
 20
5.250001
 30
0.0
 11
2.644998
 21
5.150001
 31
0.0
  0
LINE
  8
COMPON
  6
CONTINUOUS
 62
     7
  5
E7
 10
2.67
 20
5.200001
 30
0.0
 11
2.644998
 21
5.250001
 31
0.0
  0
LINE
  8
WIRING
  6
CONTINUOUS
 62
     7
  5
E8
 10
2.67
 20
5.200001
 30
0.0
 11
2.619997
 21
5.200001
 31
0.0
  0
LINE
  8
WIRING
  6
CONTINUOUS
 62
     7
  5
E9
 10
2.694997
 20
5.0
 30
0.0
 11
2.644998
 21
5.0
 31
0.0
  0
LINE
  8
WIRING
  6
CONTINUOUS
 62
     7
  5
EA
 10
2.644998
 20
5.0
 30
0.0
 11
2.644998
 21
5.15
 31
0.0
  0
LINE
  8
WIRING
  6
CONTINUOUS
 62
     7
  5
EB
 10
2.844999
 20
5.3
 30
0.0
 11
3.394998
 21
5.3
 31
0.0
  0
LINE
  8
WIRING
  6
CONTINUOUS
 62
     7
  5
EC
 10
3.394998
 20
4.9
 30
0.0
 11
3.244997
 21
4.9
 31
0.0
  0
LINE
  8
COMPON
  6
CONTINUOUS
 62
     7
  5
ED
 10
1.944997
 20
5.3
 30
0.0
 11
1.969999
 21
5.35
 31
0.0
  0
LINE
  8
COMPON
  6
CONTINUOUS
 62
     7
  5
EE
 10
1.969999
 20
5.35
 30
0.0
 11
2.019998
 21
5.25
 31
0.0
  0
LINE
  8
COMPON
  6
CONTINUOUS
 62
     7
  5
EF
 10
2.019998
 20
5.25
 30
0.0
 11
2.069997
 21
5.35
 31
0.0
  0
LINE
  8
COMPON
  6
CONTINUOUS
 62
     7
  5
F0
 10
2.069997
 20
5.35
 30
0.0
 11
2.119997
 21
5.25
 31
0.0
  0
LINE
  8
COMPON
  6
CONTINUOUS
 62
     7
  5
F1
 10
2.119997
 20
5.25
 30
0.0
 11
2.17
 21
5.35
 31
0.0
  0
LINE
  8
COMPON
  6
CONTINUOUS
 62
     7
  5
F2
 10
2.17
 20
5.35
 30
0.0
 11
2.219999
 21
5.25
 31
0.0
  0
LINE
  8
COMPON
  6
CONTINUOUS
 62
     7
  5
F3
 10
2.219999
 20
5.25
 30
0.0
 11
2.244997
 21
5.3
 31
0.0
  0
LINE
  8
COMPON
  6
CONTINUOUS
 62
     7
  5
F4
 10
2.244997
 20
5.3
 30
0.0
 11
2.295
 21
5.3
 31
0.0
  0
LINE
  8
WIRING
  6
CONTINUOUS
 62
     7
  5
F5
 10
2.444997
 20
5.3
 30
0.0
 11
2.295
 21
5.3
 31
0.0
  0
LINE
  8
WIRING
  6
CONTINUOUS
 62
     7
  5
F6
 10
2.644998
 20
4.8
 30
0.0
 11
2.694997
 21
4.8
 31
0.0
  0
LINE
  8
WIRING
  6
CONTINUOUS
 62
     7
  5
F7
 10
1.944997
 20
5.3
 30
0.0
 11
1.794998
 21
5.3
 31
0.0
  0
LINE
  8
WIRING
  6
CONTINUOUS
 62
     7
  5
F8
 10
1.794998
 20
5.3
 30
0.0
 11
1.644998
 21
5.3
 31
0.0
  0
LINE
  8
WIRING
  6
CONTINUOUS
 62
     7
  5
F9
 10
1.644998
 20
5.3
 30
0.0
 11
1.644998
 21
5.1
 31
0.0
  0
LINE
  8
WIRING
  6
CONTINUOUS
 62
     7
  5
FA
 10
1.644998
 20
5.1
 30
0.0
 11
1.594999
 21
5.1
 31
0.0
  0
LINE
  8
WIRING
  6
CONTINUOUS
 62
     7
  5
FB
 10
1.594999
 20
5.1
 30
0.0
 11
1.644998
 21
5.0
 31
0.0
  0
LINE
  8
WIRING
  6
CONTINUOUS
 62
     7
  5
FC
 10
1.644998
 20
5.0
 30
0.0
 11
1.694997
 21
5.1
 31
0.0
  0
LINE
  8
WIRING
  6
CONTINUOUS
 62
     7
  5
FD
 10
1.694997
 20
5.1
 30
0.0
 11
1.594999
 21
5.1
 31
0.0
  0
LINE
  8
COMPON
  6
CONTINUOUS
 62
     7
  5
FE
 10
2.994997
 20
5.05
 30
0.0
 11
2.994997
 21
5.1
 31
0.0
  0
TEXT
  8
COMPON
  6
CONTINUOUS
 62
     7
  5
FF
 10
2.994997
 20
5.15
 30
0.0
 40
0.05
  1
+5
  7
VC-TEXTSTYLE0
  0
LINE
  8
COMPON
  6
CONTINUOUS
 62
     7
  5
100
 10
2.994997
 20
4.75
 30
0.0
 11
2.994997
 21
4.65
 31
0.0
  0
LINE
  8
COMPON
  6
CONTINUOUS
 62
     7
  5
101
 10
2.994997
 20
4.65
 30
0.0
 11
3.045
 21
4.65
 31
0.0
  0
LINE
  8
COMPON
  6
CONTINUOUS
 62
     7
  5
102
 10
3.045
 20
4.65
 30
0.0
 11
2.994997
 21
4.55
 31
0.0
  0
LINE
  8
COMPON
  6
CONTINUOUS
 62
     7
  5
103
 10
2.994997
 20
4.55
 30
0.0
 11
2.944997
 21
4.65
 31
0.0
  0
LINE
  8
COMPON
  6
CONTINUOUS
 62
     7
  5
104
 10
2.944997
 20
4.65
 30
0.0
 11
2.994997
 21
4.65
 31
0.0
  0
LINE
  8
WIRING
  6
CONTINUOUS
 62
     7
  5
105
 10
3.4
 20
5.3
 30
0.0
 11
3.4
 21
4.9
 31
0.0
  0
LINE
  8
WIRING
  6
CONTINUOUS
 62
     7
  5
106
 10
3.350001
 20
5.299999
 30
0.0
 11
3.4
 21
5.299999
 31
0.0
  0
LINE
  8
COMPON
  6
CONTINUOUS
 62
     7
  5
107
 10
1.5
 20
4.800001
 30
0.0
 11
1.525001
 21
4.850001
 31
0.0
  0
LINE
  8
COMPON
  6
CONTINUOUS
 62
     7
  5
108
 10
1.525001
 20
4.850001
 30
0.0
 11
1.575001
 21
4.75
 31
0.0
  0
LINE
  8
COMPON
  6
CONTINUOUS
 62
     7
  5
109
 10
1.575001
 20
4.75
 30
0.0
 11
1.625
 21
4.850001
 31
0.0
  0
LINE
  8
COMPON
  6
CONTINUOUS
 62
     7
  5
10A
 10
1.625
 20
4.850001
 30
0.0
 11
1.674999
 21
4.75
 31
0.0
  0
LINE
  8
COMPON
  6
CONTINUOUS
 62
     7
  5
10B
 10
1.674999
 20
4.75
 30
0.0
 11
1.725002
 21
4.850001
 31
0.0
  0
LINE
  8
COMPON
  6
CONTINUOUS
 62
     7
  5
10C
 10
1.725002
 20
4.850001
 30
0.0
 11
1.775001
 21
4.75
 31
0.0
  0
LINE
  8
COMPON
  6
CONTINUOUS
 62
     7
  5
10D
 10
1.775001
 20
4.75
 30
0.0
 11
1.799999
 21
4.800001
 31
0.0
  0
LINE
  8
COMPON
  6
CONTINUOUS
 62
     7
  5
10E
 10
1.799999
 20
4.800001
 30
0.0
 11
1.850002
 21
4.800001
 31
0.0
  0
LINE
  8
WIRING
  6
CONTINUOUS
 62
     7
  5
10F
 10
1.5
 20
4.800001
 30
0.0
 11
1.35
 21
4.800001
 31
0.0
  0
LINE
  8
WIRING
  6
CONTINUOUS
 62
     7
  5
110
 10
2.75
 20
4.800001
 30
0.0
 11
2.550001
 21
4.800001
 31
0.0
  0
LINE
  8
COMPON
  6
CONTINUOUS
 62
     7
  5
111
 10
2.550001
 20
4.650002
 30
0.0
 11
2.600001
 21
4.625
 31
0.0
  0
LINE
  8
COMPON
  6
CONTINUOUS
 62
     7
  5
112
 10
2.600001
 20
4.625
 30
0.0
 11
2.5
 21
4.575001
 31
0.0
  0
LINE
  8
COMPON
  6
CONTINUOUS
 62
     7
  5
113
 10
2.5
 20
4.575001
 30
0.0
 11
2.600001
 21
4.525002
 31
0.0
  0
LINE
  8
COMPON
  6
CONTINUOUS
 62
     7
  5
114
 10
2.600001
 20
4.525002
 30
0.0
 11
2.5
 21
4.475002
 31
0.0
  0
LINE
  8
COMPON
  6
CONTINUOUS
 62
     7
  5
115
 10
2.5
 20
4.475002
 30
0.0
 11
2.600001
 21
4.424999
 31
0.0
  0
LINE
  8
COMPON
  6
CONTINUOUS
 62
     7
  5
116
 10
2.600001
 20
4.424999
 30
0.0
 11
2.5
 21
4.375
 31
0.0
  0
LINE
  8
COMPON
  6
CONTINUOUS
 62
     7
  5
117
 10
2.5
 20
4.375
 30
0.0
 11
2.550001
 21
4.350002
 31
0.0
  0
LINE
  8
COMPON
  6
CONTINUOUS
 62
     7
  5
118
 10
2.550001
 20
4.350002
 30
0.0
 11
2.550001
 21
4.299999
 31
0.0
  0
LINE
  8
WIRING
  6
CONTINUOUS
 62
     7
  5
119
 10
2.550001
 20
4.650002
 30
0.0
 11
2.550001
 21
4.800001
 31
0.0
  0
LINE
  8
WIRING
  6
CONTINUOUS
 62
     7
  5
11A
 10
2.550001
 20
4.800001
 30
0.0
 11
2.300001
 21
4.800001
 31
0.0
  0
LINE
  8
WIRING
  6
CONTINUOUS
 62
     7
  5
11B
 10
2.300001
 20
4.800001
 30
0.0
 11
2.300001
 21
4.650001
 31
0.0
  0
LINE
  8
WIRING
  6
CONTINUOUS
 62
     7
  5
11C
 10
2.300001
 20
4.5
 30
0.0
 11
2.200001
 21
4.650001
 31
0.0
  0
LINE
  8
WIRING
  6
CONTINUOUS
 62
     7
  5
11D
 10
2.550001
 20
4.3
 30
0.0
 11
2.550001
 21
3.900001
 31
0.0
  0
LINE
  8
WIRING
  6
CONTINUOUS
 62
     7
  5
11E
 10
2.550001
 20
3.900001
 30
0.0
 11
2.300001
 21
3.900001
 31
0.0
  0
LINE
  8
WIRING
  6
CONTINUOUS
 62
     7
  5
11F
 10
2.300001
 20
4.800001
 30
0.0
 11
2.100001
 21
4.800001
 31
0.0
  0
LINE
  8
WIRING
  6
CONTINUOUS
 62
     7
  5
120
 10
2.144998
 20
4.8
 30
0.0
 11
2.0
 21
4.800001
 31
0.0
  0
LINE
  8
WIRING
  6
CONTINUOUS
 62
     7
  5
121
 10
2.000002
 20
4.800001
 30
0.0
 11
2.000002
 21
4.500001
 31
0.0
  0
LINE
  8
WIRING
  6
CONTINUOUS
 62
     7
  5
122
 10
2.000002
 20
4.500001
 30
0.0
 11
1.950002
 21
4.500001
 31
0.0
  0
LINE
  8
WIRING
  6
CONTINUOUS
 62
     7
  5
123
 10
1.950002
 20
4.500001
 30
0.0
 11
2.050001
 21
4.500001
 31
0.0
  0
LINE
  8
WIRING
  6
CONTINUOUS
 62
     7
  5
124
 10
1.950002
 20
4.45
 30
0.0
 11
2.050001
 21
4.45
 31
0.0
  0
LINE
  8
WIRING
  6
CONTINUOUS
 62
     7
  5
125
 10
2.000002
 20
4.45
 30
0.0
 11
2.000002
 21
4.2
 31
0.0
  0
LINE
  8
WIRING
  6
CONTINUOUS
 62
     7
  5
126
 10
2.0
 20
3.900001
 30
0.0
 11
2.0
 21
4.200001
 31
0.0
  0
LINE
  8
WIRING
  6
CONTINUOUS
 62
     7
  5
127
 10
2.0
 20
4.800001
 30
0.0
 11
1.850001
 21
4.800001
 31
0.0
  0
LINE
  8
WIRING
  6
CONTINUOUS
 62
     7
  5
128
 10
2.0
 20
3.900001
 30
0.0
 11
2.300001
 21
3.900001
 31
0.0
  0
LINE
  8
WIRING
  6
CONTINUOUS
 62
     7
  5
129
 10
2.550001
 20
3.900001
 30
0.0
 11
2.550001
 21
3.8
 31
0.0
  0
LINE
  8
WIRING
  6
CONTINUOUS
 62
     7
  5
12A
 10
2.550001
 20
3.8
 30
0.0
 11
2.5
 21
3.8
 31
0.0
  0
LINE
  8
WIRING
  6
CONTINUOUS
 62
     7
  5
12B
 10
2.5
 20
3.8
 30
0.0
 11
2.550001
 21
3.700001
 31
0.0
  0
LINE
  8
WIRING
  6
CONTINUOUS
 62
     7
  5
12C
 10
2.550001
 20
3.700001
 30
0.0
 11
2.600001
 21
3.8
 31
0.0
  0
LINE
  8
WIRING
  6
CONTINUOUS
 62
     7
  5
12D
 10
2.600001
 20
3.8
 30
0.0
 11
2.550001
 21
3.8
 31
0.0
  0
LINE
  8
COMPON
  6
CONTINUOUS
 62
     7
  5
12E
 10
2.300001
 20
4.400002
 30
0.0
 11
2.350001
 21
4.375
 31
0.0
  0
LINE
  8
COMPON
  6
CONTINUOUS
 62
     7
  5
12F
 10
2.350001
 20
4.375
 30
0.0
 11
2.25
 21
4.325001
 31
0.0
  0
LINE
  8
COMPON
  6
CONTINUOUS
 62
     7
  5
130
 10
2.25
 20
4.325001
 30
0.0
 11
2.350001
 21
4.275002
 31
0.0
  0
LINE
  8
COMPON
  6
CONTINUOUS
 62
     7
  5
131
 10
2.350001
 20
4.275002
 30
0.0
 11
2.25
 21
4.225002
 31
0.0
  0
LINE
  8
COMPON
  6
CONTINUOUS
 62
     7
  5
132
 10
2.25
 20
4.225002
 30
0.0
 11
2.350001
 21
4.174999
 31
0.0
  0
LINE
  8
COMPON
  6
CONTINUOUS
 62
     7
  5
133
 10
2.350001
 20
4.174999
 30
0.0
 11
2.25
 21
4.125
 31
0.0
  0
LINE
  8
COMPON
  6
CONTINUOUS
 62
     7
  5
134
 10
2.25
 20
4.125
 30
0.0
 11
2.300001
 21
4.100002
 31
0.0
  0
LINE
  8
WIRING
  6
CONTINUOUS
 62
     7
  5
135
 10
2.300001
 20
4.400001
 30
0.0
 11
2.300001
 21
4.5
 31
0.0
  0
LINE
  8
WIRING
  6
CONTINUOUS
 62
     7
  5
136
 10
2.300001
 20
4.1
 30
0.0
 11
2.300001
 21
3.900001
 31
0.0
  0
INSERT
  8
COMPON
  6
TYPE___1
 62
     7
  5
137
  2
XCON-DOT
 10
2.300002
 20
4.650001
 30
0.0
 50
90.0
  0
INSERT
  8
COMPON
  6
TYPE___1
 62
     7
  5
138
  2
XCON-DOT
 10
2.300002
 20
4.650001
 30
0.0
 50
90.0
  0
INSERT
  8
COMPON
  6
TYPE___1
 62
     7
  5
139
  2
XCON-DOT
 10
2.300002
 20
4.650001
 30
0.0
 50
90.0
  0
INSERT
  8
COMPON
  6
TYPE___1
 62
     7
  5
13A
  2
XCON-DOT
 10
2.300002
 20
4.5
 30
0.0
 50
90.0
  0
INSERT
  8
COMPON
  6
TYPE___1
 62
     7
  5
13B
  2
XCON-DOT
 10
2.300002
 20
4.5
 30
0.0
 50
90.0
  0
INSERT
  8
COMPON
  6
TYPE___1
 62
     7
  5
13C
  2
XCON-DOT
 10
2.300002
 20
4.5
 30
0.0
 50
90.0
  0
LINE
  8
COMPON
  6
CONTINUOUS
 62
     7
  5
13D
 10
3.894997
 20
3.7
 30
0.0
 11
3.944997
 21
3.7
 31
0.0
  0
LINE
  8
COMPON
  6
CONTINUOUS
 62
     7
  5
13E
 10
3.894997
 20
3.5
 30
0.0
 11
3.944997
 21
3.5
 31
0.0
  0
LINE
  8
COMPON
  6
CONTINUOUS
 62
     7
  5
13F
 10
3.944997
 20
3.350001
 30
0.0
 11
3.944997
 21
3.850001
 31
0.0
  0
LINE
  8
COMPON
  6
CONTINUOUS
 62
     7
  5
140
 10
3.944997
 20
3.850001
 30
0.0
 11
4.444997
 21
3.600001
 31
0.0
  0
LINE
  8
COMPON
  6
CONTINUOUS
 62
     7
  5
141
 10
4.444997
 20
3.600001
 30
0.0
 11
3.944997
 21
3.350001
 31
0.0
  0
LINE
  8
COMPON
  6
CONTINUOUS
 62
     7
  5
142
 10
3.969998
 20
3.5
 30
0.0
 11
4.019998
 21
3.5
 31
0.0
  0
LINE
  8
COMPON
  6
CONTINUOUS
 62
     7
  5
143
 10
3.995
 20
3.525
 30
0.0
 11
3.995
 21
3.475001
 31
0.0
  0
LINE
  8
COMPON
  6
CONTINUOUS
 62
     7
  5
144
 10
3.969998
 20
3.7
 30
0.0
 11
4.019998
 21
3.7
 31
0.0
  0
LINE
  8
COMPON
  6
CONTINUOUS
 62
     7
  5
145
 10
3.644997
 20
4.0
 30
0.0
 11
3.694997
 21
4.0
 31
0.0
  0
LINE
  8
COMPON
  6
CONTINUOUS
 62
     7
  5
146
 10
3.694997
 20
4.0
 30
0.0
 11
3.719998
 21
4.050002
 31
0.0
  0
LINE
  8
COMPON
  6
CONTINUOUS
 62
     7
  5
147
 10
3.719998
 20
4.050002
 30
0.0
 11
3.769997
 21
3.950001
 31
0.0
  0
LINE
  8
COMPON
  6
CONTINUOUS
 62
     7
  5
148
 10
3.769997
 20
3.950001
 30
0.0
 11
3.819997
 21
4.050002
 31
0.0
  0
LINE
  8
COMPON
  6
CONTINUOUS
 62
     7
  5
149
 10
3.819997
 20
4.050002
 30
0.0
 11
3.869996
 21
3.950001
 31
0.0
  0
LINE
  8
COMPON
  6
CONTINUOUS
 62
     7
  5
14A
 10
3.869996
 20
3.950001
 30
0.0
 11
3.919999
 21
4.050002
 31
0.0
  0
LINE
  8
COMPON
  6
CONTINUOUS
 62
     7
  5
14B
 10
3.919999
 20
4.050002
 30
0.0
 11
3.969998
 21
3.950001
 31
0.0
  0
LINE
  8
COMPON
  6
CONTINUOUS
 62
     7
  5
14C
 10
3.969998
 20
3.950001
 30
0.0
 11
3.994996
 21
4.0
 31
0.0
  0
LINE
  8
COMPON
  6
CONTINUOUS
 62
     7
  5
14D
 10
3.994996
 20
4.0
 30
0.0
 11
4.044999
 21
4.0
 31
0.0
  0
LINE
  8
COMPON
  6
CONTINUOUS
 62
     7
  5
14E
 10
3.844998
 20
3.950001
 30
0.0
 11
3.844998
 21
3.850001
 31
0.0
  0
LINE
  8
COMPON
  6
CONTINUOUS
 62
     7
  5
14F
 10
3.87
 20
3.900001
 30
0.0
 11
3.844998
 21
3.950001
 31
0.0
  0
LINE
  8
WIRING
  6
CONTINUOUS
 62
     7
  5
150
 10
3.87
 20
3.900001
 30
0.0
 11
3.819997
 21
3.900001
 31
0.0
  0
LINE
  8
WIRING
  6
CONTINUOUS
 62
     7
  5
151
 10
3.894997
 20
3.7
 30
0.0
 11
3.844998
 21
3.7
 31
0.0
  0
LINE
  8
WIRING
  6
CONTINUOUS
 62
     7
  5
152
 10
3.844998
 20
3.7
 30
0.0
 11
3.844998
 21
3.85
 31
0.0
  0
LINE
  8
WIRING
  6
CONTINUOUS
 62
     7
  5
153
 10
4.044999
 20
4.0
 30
0.0
 11
4.594998
 21
4.0
 31
0.0
  0
LINE
  8
WIRING
  6
CONTINUOUS
 62
     7
  5
154
 10
4.594998
 20
3.6
 30
0.0
 11
4.444997
 21
3.6
 31
0.0
  0
LINE
  8
COMPON
  6
CONTINUOUS
 62
     7
  5
155
 10
3.144997
 20
4.0
 30
0.0
 11
3.169999
 21
4.050001
 31
0.0
  0
LINE
  8
COMPON
  6
CONTINUOUS
 62
     7
  5
156
 10
3.169999
 20
4.050001
 30
0.0
 11
3.219998
 21
3.95
 31
0.0
  0
LINE
  8
COMPON
  6
CONTINUOUS
 62
     7
  5
157
 10
3.219998
 20
3.95
 30
0.0
 11
3.269997
 21
4.050001
 31
0.0
  0
LINE
  8
COMPON
  6
CONTINUOUS
 62
     7
  5
158
 10
3.269997
 20
4.050001
 30
0.0
 11
3.319997
 21
3.95
 31
0.0
  0
LINE
  8
COMPON
  6
CONTINUOUS
 62
     7
  5
159
 10
3.319997
 20
3.95
 30
0.0
 11
3.37
 21
4.050001
 31
0.0
  0
LINE
  8
COMPON
  6
CONTINUOUS
 62
     7
  5
15A
 10
3.37
 20
4.050001
 30
0.0
 11
3.419999
 21
3.95
 31
0.0
  0
LINE
  8
COMPON
  6
CONTINUOUS
 62
     7
  5
15B
 10
3.419999
 20
3.95
 30
0.0
 11
3.444997
 21
4.0
 31
0.0
  0
LINE
  8
COMPON
  6
CONTINUOUS
 62
     7
  5
15C
 10
3.444997
 20
4.0
 30
0.0
 11
3.495
 21
4.0
 31
0.0
  0
LINE
  8
WIRING
  6
CONTINUOUS
 62
     7
  5
15D
 10
3.644997
 20
4.0
 30
0.0
 11
3.495
 21
4.0
 31
0.0
  0
LINE
  8
WIRING
  6
CONTINUOUS
 62
     7
  5
15E
 10
3.844998
 20
3.5
 30
0.0
 11
3.894997
 21
3.5
 31
0.0
  0
LINE
  8
WIRING
  6
CONTINUOUS
 62
     7
  5
15F
 10
3.144997
 20
4.0
 30
0.0
 11
2.994998
 21
4.0
 31
0.0
  0
LINE
  8
WIRING
  6
CONTINUOUS
 62
     7
  5
160
 10
2.994998
 20
4.0
 30
0.0
 11
2.844998
 21
4.0
 31
0.0
  0
LINE
  8
WIRING
  6
CONTINUOUS
 62
     7
  5
161
 10
2.844998
 20
4.0
 30
0.0
 11
2.844998
 21
3.800001
 31
0.0
  0
LINE
  8
WIRING
  6
CONTINUOUS
 62
     7
  5
162
 10
2.844998
 20
3.800001
 30
0.0
 11
2.794999
 21
3.800001
 31
0.0
  0
LINE
  8
WIRING
  6
CONTINUOUS
 62
     7
  5
163
 10
2.794999
 20
3.800001
 30
0.0
 11
2.844998
 21
3.7
 31
0.0
  0
LINE
  8
WIRING
  6
CONTINUOUS
 62
     7
  5
164
 10
2.844998
 20
3.7
 30
0.0
 11
2.894997
 21
3.800001
 31
0.0
  0
LINE
  8
WIRING
  6
CONTINUOUS
 62
     7
  5
165
 10
2.894997
 20
3.800001
 30
0.0
 11
2.794999
 21
3.800001
 31
0.0
  0
LINE
  8
COMPON
  6
CONTINUOUS
 62
     7
  5
166
 10
4.194997
 20
3.75
 30
0.0
 11
4.194997
 21
3.800001
 31
0.0
  0
TEXT
  8
COMPON
  6
CONTINUOUS
 62
     7
  5
167
 10
4.194997
 20
3.85
 30
0.0
 40
0.05
  1
+5
  7
VC-TEXTSTYLE0
  0
LINE
  8
COMPON
  6
CONTINUOUS
 62
     7
  5
168
 10
4.194997
 20
3.45
 30
0.0
 11
4.194997
 21
3.35
 31
0.0
  0
LINE
  8
COMPON
  6
CONTINUOUS
 62
     7
  5
169
 10
4.194997
 20
3.35
 30
0.0
 11
4.245
 21
3.35
 31
0.0
  0
LINE
  8
COMPON
  6
CONTINUOUS
 62
     7
  5
16A
 10
4.245
 20
3.35
 30
0.0
 11
4.194997
 21
3.25
 31
0.0
  0
LINE
  8
COMPON
  6
CONTINUOUS
 62
     7
  5
16B
 10
4.194997
 20
3.25
 30
0.0
 11
4.144998
 21
3.35
 31
0.0
  0
LINE
  8
COMPON
  6
CONTINUOUS
 62
     7
  5
16C
 10
4.144998
 20
3.35
 30
0.0
 11
4.194997
 21
3.35
 31
0.0
  0
LINE
  8
WIRING
  6
CONTINUOUS
 62
     7
  5
16D
 10
4.6
 20
4.0
 30
0.0
 11
4.6
 21
3.6
 31
0.0
  0
LINE
  8
WIRING
  6
CONTINUOUS
 62
     7
  5
16E
 10
4.550001
 20
4.0
 30
0.0
 11
4.6
 21
4.0
 31
0.0
  0
LINE
  8
COMPON
  6
CONTINUOUS
 62
     7
  5
16F
 10
2.7
 20
3.500001
 30
0.0
 11
2.725001
 21
3.550001
 31
0.0
  0
LINE
  8
COMPON
  6
CONTINUOUS
 62
     7
  5
170
 10
2.725001
 20
3.550001
 30
0.0
 11
2.775001
 21
3.450001
 31
0.0
  0
LINE
  8
COMPON
  6
CONTINUOUS
 62
     7
  5
171
 10
2.775001
 20
3.450001
 30
0.0
 11
2.825
 21
3.550001
 31
0.0
  0
LINE
  8
COMPON
  6
CONTINUOUS
 62
     7
  5
172
 10
2.825
 20
3.550001
 30
0.0
 11
2.874999
 21
3.450001
 31
0.0
  0
LINE
  8
COMPON
  6
CONTINUOUS
 62
     7
  5
173
 10
2.874999
 20
3.450001
 30
0.0
 11
2.925002
 21
3.550001
 31
0.0
  0
LINE
  8
COMPON
  6
CONTINUOUS
 62
     7
  5
174
 10
2.925002
 20
3.550001
 30
0.0
 11
2.975001
 21
3.450001
 31
0.0
  0
LINE
  8
COMPON
  6
CONTINUOUS
 62
     7
  5
175
 10
2.975001
 20
3.450001
 30
0.0
 11
2.999999
 21
3.500001
 31
0.0
  0
LINE
  8
COMPON
  6
CONTINUOUS
 62
     7
  5
176
 10
2.999999
 20
3.500001
 30
0.0
 11
3.050002
 21
3.500001
 31
0.0
  0
LINE
  8
WIRING
  6
CONTINUOUS
 62
     7
  5
177
 10
2.7
 20
3.500001
 30
0.0
 11
2.55
 21
3.500001
 31
0.0
  0
LINE
  8
WIRING
  6
CONTINUOUS
 62
     7
  5
178
 10
2.255003
 20
3.500001
 30
0.0
 11
2.550002
 21
3.500001
 31
0.0
  0
LINE
  8
WIRING
  6
CONTINUOUS
 62
     7
  5
179
 10
3.950001
 20
3.500001
 30
0.0
 11
3.750001
 21
3.500001
 31
0.0
  0
LINE
  8
COMPON
  6
CONTINUOUS
 62
     7
  5
17A
 10
3.750001
 20
3.350002
 30
0.0
 11
3.800001
 21
3.325
 31
0.0
  0
LINE
  8
COMPON
  6
CONTINUOUS
 62
     7
  5
17B
 10
3.800001
 20
3.325
 30
0.0
 11
3.700001
 21
3.275001
 31
0.0
  0
LINE
  8
COMPON
  6
CONTINUOUS
 62
     7
  5
17C
 10
3.700001
 20
3.275001
 30
0.0
 11
3.800001
 21
3.225002
 31
0.0
  0
LINE
  8
COMPON
  6
CONTINUOUS
 62
     7
  5
17D
 10
3.800001
 20
3.225002
 30
0.0
 11
3.700001
 21
3.175003
 31
0.0
  0
LINE
  8
COMPON
  6
CONTINUOUS
 62
     7
  5
17E
 10
3.700001
 20
3.175003
 30
0.0
 11
3.800001
 21
3.125
 31
0.0
  0
LINE
  8
COMPON
  6
CONTINUOUS
 62
     7
  5
17F
 10
3.800001
 20
3.125
 30
0.0
 11
3.700001
 21
3.075
 31
0.0
  0
LINE
  8
COMPON
  6
CONTINUOUS
 62
     7
  5
180
 10
3.700001
 20
3.075
 30
0.0
 11
3.750001
 21
3.050003
 31
0.0
  0
LINE
  8
COMPON
  6
CONTINUOUS
 62
     7
  5
181
 10
3.750001
 20
3.050003
 30
0.0
 11
3.750001
 21
3.0
 31
0.0
  0
LINE
  8
WIRING
  6
CONTINUOUS
 62
     7
  5
182
 10
3.750001
 20
3.350002
 30
0.0
 11
3.750001
 21
3.500001
 31
0.0
  0
LINE
  8
WIRING
  6
CONTINUOUS
 62
     7
  5
183
 10
3.750001
 20
3.500001
 30
0.0
 11
3.500001
 21
3.500001
 31
0.0
  0
LINE
  8
WIRING
  6
CONTINUOUS
 62
     7
  5
184
 10
3.500001
 20
3.500001
 30
0.0
 11
3.500001
 21
3.350001
 31
0.0
  0
LINE
  8
WIRING
  6
CONTINUOUS
 62
     7
  5
185
 10
3.500001
 20
3.200001
 30
0.0
 11
3.400001
 21
3.350001
 31
0.0
  0
LINE
  8
WIRING
  6
CONTINUOUS
 62
     7
  5
186
 10
3.750001
 20
3.0
 30
0.0
 11
3.750001
 21
2.600001
 31
0.0
  0
LINE
  8
WIRING
  6
CONTINUOUS
 62
     7
  5
187
 10
3.750001
 20
2.600001
 30
0.0
 11
3.500001
 21
2.600001
 31
0.0
  0
LINE
  8
WIRING
  6
CONTINUOUS
 62
     7
  5
188
 10
3.500001
 20
3.500001
 30
0.0
 11
3.300001
 21
3.500001
 31
0.0
  0
LINE
  8
WIRING
  6
CONTINUOUS
 62
     7
  5
189
 10
3.344998
 20
3.5
 30
0.0
 11
3.200001
 21
3.500001
 31
0.0
  0
LINE
  8
WIRING
  6
CONTINUOUS
 62
     7
  5
18A
 10
3.200002
 20
3.500001
 30
0.0
 11
3.200002
 21
3.200002
 31
0.0
  0
LINE
  8
WIRING
  6
CONTINUOUS
 62
     7
  5
18B
 10
3.200002
 20
3.200002
 30
0.0
 11
3.150002
 21
3.200002
 31
0.0
  0
LINE
  8
WIRING
  6
CONTINUOUS
 62
     7
  5
18C
 10
3.150002
 20
3.200002
 30
0.0
 11
3.250001
 21
3.200002
 31
0.0
  0
LINE
  8
WIRING
  6
CONTINUOUS
 62
     7
  5
18D
 10
3.150002
 20
3.150001
 30
0.0
 11
3.250001
 21
3.150001
 31
0.0
  0
LINE
  8
WIRING
  6
CONTINUOUS
 62
     7
  5
18E
 10
3.200002
 20
3.150001
 30
0.0
 11
3.200002
 21
2.900001
 31
0.0
  0
LINE
  8
WIRING
  6
CONTINUOUS
 62
     7
  5
18F
 10
3.200001
 20
2.600001
 30
0.0
 11
3.200001
 21
2.900001
 31
0.0
  0
LINE
  8
WIRING
  6
CONTINUOUS
 62
     7
  5
190
 10
3.200001
 20
3.500001
 30
0.0
 11
3.050001
 21
3.500001
 31
0.0
  0
LINE
  8
WIRING
  6
CONTINUOUS
 62
     7
  5
191
 10
3.200001
 20
2.600001
 30
0.0
 11
3.500001
 21
2.600001
 31
0.0
  0
LINE
  8
WIRING
  6
CONTINUOUS
 62
     7
  5
192
 10
3.750001
 20
2.600001
 30
0.0
 11
3.750001
 21
2.5
 31
0.0
  0
LINE
  8
WIRING
  6
CONTINUOUS
 62
     7
  5
193
 10
3.750001
 20
2.5
 30
0.0
 11
3.700001
 21
2.5
 31
0.0
  0
LINE
  8
WIRING
  6
CONTINUOUS
 62
     7
  5
194
 10
3.700001
 20
2.5
 30
0.0
 11
3.750001
 21
2.400001
 31
0.0
  0
LINE
  8
WIRING
  6
CONTINUOUS
 62
     7
  5
195
 10
3.750001
 20
2.400001
 30
0.0
 11
3.800001
 21
2.5
 31
0.0
  0
LINE
  8
WIRING
  6
CONTINUOUS
 62
     7
  5
196
 10
3.800001
 20
2.5
 30
0.0
 11
3.750001
 21
2.5
 31
0.0
  0
LINE
  8
COMPON
  6
CONTINUOUS
 62
     7
  5
197
 10
3.500001
 20
3.100002
 30
0.0
 11
3.550001
 21
3.075
 31
0.0
  0
LINE
  8
COMPON
  6
CONTINUOUS
 62
     7
  5
198
 10
3.550001
 20
3.075
 30
0.0
 11
3.450001
 21
3.025001
 31
0.0
  0
LINE
  8
COMPON
  6
CONTINUOUS
 62
     7
  5
199
 10
3.450001
 20
3.025001
 30
0.0
 11
3.550001
 21
2.975002
 31
0.0
  0
LINE
  8
COMPON
  6
CONTINUOUS
 62
     7
  5
19A
 10
3.550001
 20
2.975002
 30
0.0
 11
3.450001
 21
2.925003
 31
0.0
  0
LINE
  8
COMPON
  6
CONTINUOUS
 62
     7
  5
19B
 10
3.450001
 20
2.925003
 30
0.0
 11
3.550001
 21
2.875
 31
0.0
  0
LINE
  8
COMPON
  6
CONTINUOUS
 62
     7
  5
19C
 10
3.550001
 20
2.875
 30
0.0
 11
3.450001
 21
2.825
 31
0.0
  0
LINE
  8
COMPON
  6
CONTINUOUS
 62
     7
  5
19D
 10
3.450001
 20
2.825
 30
0.0
 11
3.500001
 21
2.800003
 31
0.0
  0
LINE
  8
WIRING
  6
CONTINUOUS
 62
     7
  5
19E
 10
3.500001
 20
3.100001
 30
0.0
 11
3.500001
 21
3.200001
 31
0.0
  0
LINE
  8
WIRING
  6
CONTINUOUS
 62
     7
  5
19F
 10
3.500001
 20
2.800001
 30
0.0
 11
3.500001
 21
2.600001
 31
0.0
  0
INSERT
  8
COMPON
  6
TYPE___1
 62
     7
  5
1A0
  2
XCON-DOT
 10
3.500002
 20
3.350001
 30
0.0
 50
90.0
  0
INSERT
  8
COMPON
  6
TYPE___1
 62
     7
  5
1A1
  2
XCON-DOT
 10
3.500002
 20
3.350001
 30
0.0
 50
90.0
  0
INSERT
  8
COMPON
  6
TYPE___1
 62
     7
  5
1A2
  2
XCON-DOT
 10
3.500002
 20
3.350001
 30
0.0
 50
90.0
  0
INSERT
  8
COMPON
  6
TYPE___1
 62
     7
  5
1A3
  2
XCON-DOT
 10
3.500002
 20
3.200001
 30
0.0
 50
90.0
  0
INSERT
  8
COMPON
  6
TYPE___1
 62
     7
  5
1A4
  2
XCON-DOT
 10
3.500002
 20
3.200001
 30
0.0
 50
90.0
  0
INSERT
  8
COMPON
  6
TYPE___1
 62
     7
  5
1A5
  2
XCON-DOT
 10
3.500002
 20
3.200001
 30
0.0
 50
90.0
  0
LINE
  8
COMPON
  6
CONTINUOUS
 62
     7
  5
1A6
 10
2.694997
 20
2.2
 30
0.0
 11
2.744997
 21
2.2
 31
0.0
  0
LINE
  8
COMPON
  6
CONTINUOUS
 62
     7
  5
1A7
 10
2.694997
 20
2.0
 30
0.0
 11
2.744997
 21
2.0
 31
0.0
  0
LINE
  8
COMPON
  6
CONTINUOUS
 62
     7
  5
1A8
 10
2.744997
 20
1.85
 30
0.0
 11
2.744997
 21
2.35
 31
0.0
  0
LINE
  8
COMPON
  6
CONTINUOUS
 62
     7
  5
1A9
 10
2.744997
 20
2.35
 30
0.0
 11
3.244997
 21
2.1
 31
0.0
  0
LINE
  8
COMPON
  6
CONTINUOUS
 62
     7
  5
1AA
 10
3.244997
 20
2.1
 30
0.0
 11
2.744997
 21
1.85
 31
0.0
  0
LINE
  8
COMPON
  6
CONTINUOUS
 62
     7
  5
1AB
 10
2.769998
 20
2.0
 30
0.0
 11
2.819997
 21
2.0
 31
0.0
  0
LINE
  8
COMPON
  6
CONTINUOUS
 62
     7
  5
1AC
 10
2.795
 20
2.025
 30
0.0
 11
2.795
 21
1.975
 31
0.0
  0
LINE
  8
COMPON
  6
CONTINUOUS
 62
     7
  5
1AD
 10
2.769998
 20
2.2
 30
0.0
 11
2.819997
 21
2.2
 31
0.0
  0
LINE
  8
COMPON
  6
CONTINUOUS
 62
     7
  5
1AE
 10
2.444997
 20
2.5
 30
0.0
 11
2.494997
 21
2.5
 31
0.0
  0
LINE
  8
COMPON
  6
CONTINUOUS
 62
     7
  5
1AF
 10
2.494997
 20
2.5
 30
0.0
 11
2.519998
 21
2.550001
 31
0.0
  0
LINE
  8
COMPON
  6
CONTINUOUS
 62
     7
  5
1B0
 10
2.519998
 20
2.550001
 30
0.0
 11
2.569997
 21
2.450001
 31
0.0
  0
LINE
  8
COMPON
  6
CONTINUOUS
 62
     7
  5
1B1
 10
2.569997
 20
2.450001
 30
0.0
 11
2.619997
 21
2.550001
 31
0.0
  0
LINE
  8
COMPON
  6
CONTINUOUS
 62
     7
  5
1B2
 10
2.619997
 20
2.550001
 30
0.0
 11
2.669996
 21
2.450001
 31
0.0
  0
LINE
  8
COMPON
  6
CONTINUOUS
 62
     7
  5
1B3
 10
2.669996
 20
2.450001
 30
0.0
 11
2.719999
 21
2.550001
 31
0.0
  0
LINE
  8
COMPON
  6
CONTINUOUS
 62
     7
  5
1B4
 10
2.719999
 20
2.550001
 30
0.0
 11
2.769998
 21
2.450001
 31
0.0
  0
LINE
  8
COMPON
  6
CONTINUOUS
 62
     7
  5
1B5
 10
2.769998
 20
2.450001
 30
0.0
 11
2.794996
 21
2.5
 31
0.0
  0
LINE
  8
COMPON
  6
CONTINUOUS
 62
     7
  5
1B6
 10
2.794996
 20
2.5
 30
0.0
 11
2.844999
 21
2.5
 31
0.0
  0
LINE
  8
COMPON
  6
CONTINUOUS
 62
     7
  5
1B7
 10
2.644998
 20
2.450001
 30
0.0
 11
2.644998
 21
2.35
 31
0.0
  0
LINE
  8
COMPON
  6
CONTINUOUS
 62
     7
  5
1B8
 10
2.67
 20
2.400001
 30
0.0
 11
2.644998
 21
2.450001
 31
0.0
  0
LINE
  8
WIRING
  6
CONTINUOUS
 62
     7
  5
1B9
 10
2.67
 20
2.400001
 30
0.0
 11
2.619997
 21
2.400001
 31
0.0
  0
LINE
  8
WIRING
  6
CONTINUOUS
 62
     7
  5
1BA
 10
2.694997
 20
2.2
 30
0.0
 11
2.644998
 21
2.2
 31
0.0
  0
LINE
  8
WIRING
  6
CONTINUOUS
 62
     7
  5
1BB
 10
2.644998
 20
2.2
 30
0.0
 11
2.644998
 21
2.349999
 31
0.0
  0
LINE
  8
WIRING
  6
CONTINUOUS
 62
     7
  5
1BC
 10
2.844999
 20
2.5
 30
0.0
 11
3.394998
 21
2.5
 31
0.0
  0
LINE
  8
WIRING
  6
CONTINUOUS
 62
     7
  5
1BD
 10
3.394998
 20
2.099999
 30
0.0
 11
3.244997
 21
2.099999
 31
0.0
  0
LINE
  8
COMPON
  6
CONTINUOUS
 62
     7
  5
1BE
 10
1.944997
 20
2.5
 30
0.0
 11
1.969999
 21
2.55
 31
0.0
  0
LINE
  8
COMPON
  6
CONTINUOUS
 62
     7
  5
1BF
 10
1.969999
 20
2.55
 30
0.0
 11
2.019998
 21
2.45
 31
0.0
  0
LINE
  8
COMPON
  6
CONTINUOUS
 62
     7
  5
1C0
 10
2.019998
 20
2.45
 30
0.0
 11
2.069997
 21
2.55
 31
0.0
  0
LINE
  8
COMPON
  6
CONTINUOUS
 62
     7
  5
1C1
 10
2.069997
 20
2.55
 30
0.0
 11
2.119997
 21
2.45
 31
0.0
  0
LINE
  8
COMPON
  6
CONTINUOUS
 62
     7
  5
1C2
 10
2.119997
 20
2.45
 30
0.0
 11
2.17
 21
2.55
 31
0.0
  0
LINE
  8
COMPON
  6
CONTINUOUS
 62
     7
  5
1C3
 10
2.17
 20
2.55
 30
0.0
 11
2.219999
 21
2.45
 31
0.0
  0
LINE
  8
COMPON
  6
CONTINUOUS
 62
     7
  5
1C4
 10
2.219999
 20
2.45
 30
0.0
 11
2.244997
 21
2.5
 31
0.0
  0
LINE
  8
COMPON
  6
CONTINUOUS
 62
     7
  5
1C5
 10
2.244997
 20
2.5
 30
0.0
 11
2.295
 21
2.5
 31
0.0
  0
LINE
  8
WIRING
  6
CONTINUOUS
 62
     7
  5
1C6
 10
2.444997
 20
2.5
 30
0.0
 11
2.295
 21
2.5
 31
0.0
  0
LINE
  8
WIRING
  6
CONTINUOUS
 62
     7
  5
1C7
 10
2.644998
 20
2.0
 30
0.0
 11
2.694997
 21
2.0
 31
0.0
  0
LINE
  8
WIRING
  6
CONTINUOUS
 62
     7
  5
1C8
 10
1.944997
 20
2.5
 30
0.0
 11
1.794998
 21
2.5
 31
0.0
  0
LINE
  8
WIRING
  6
CONTINUOUS
 62
     7
  5
1C9
 10
1.794998
 20
2.5
 30
0.0
 11
1.644998
 21
2.5
 31
0.0
  0
LINE
  8
WIRING
  6
CONTINUOUS
 62
     7
  5
1CA
 10
1.644998
 20
2.5
 30
0.0
 11
1.644998
 21
2.3
 31
0.0
  0
LINE
  8
WIRING
  6
CONTINUOUS
 62
     7
  5
1CB
 10
1.644998
 20
2.3
 30
0.0
 11
1.594999
 21
2.3
 31
0.0
  0
LINE
  8
WIRING
  6
CONTINUOUS
 62
     7
  5
1CC
 10
1.594999
 20
2.3
 30
0.0
 11
1.644998
 21
2.2
 31
0.0
  0
LINE
  8
WIRING
  6
CONTINUOUS
 62
     7
  5
1CD
 10
1.644998
 20
2.2
 30
0.0
 11
1.694997
 21
2.3
 31
0.0
  0
LINE
  8
WIRING
  6
CONTINUOUS
 62
     7
  5
1CE
 10
1.694997
 20
2.3
 30
0.0
 11
1.594999
 21
2.3
 31
0.0
  0
LINE
  8
COMPON
  6
CONTINUOUS
 62
     7
  5
1CF
 10
2.994997
 20
2.25
 30
0.0
 11
2.994997
 21
2.3
 31
0.0
  0
TEXT
  8
COMPON
  6
CONTINUOUS
 62
     7
  5
1D0
 10
2.994997
 20
2.349999
 30
0.0
 40
0.05
  1
+5
  7
VC-TEXTSTYLE0
  0
LINE
  8
COMPON
  6
CONTINUOUS
 62
     7
  5
1D1
 10
2.994997
 20
1.95
 30
0.0
 11
2.994997
 21
1.849999
 31
0.0
  0
LINE
  8
COMPON
  6
CONTINUOUS
 62
     7
  5
1D2
 10
2.994997
 20
1.849999
 30
0.0
 11
3.045
 21
1.849999
 31
0.0
  0
LINE
  8
COMPON
  6
CONTINUOUS
 62
     7
  5
1D3
 10
3.045
 20
1.849999
 30
0.0
 11
2.994997
 21
1.75
 31
0.0
  0
LINE
  8
COMPON
  6
CONTINUOUS
 62
     7
  5
1D4
 10
2.994997
 20
1.75
 30
0.0
 11
2.944997
 21
1.849999
 31
0.0
  0
LINE
  8
COMPON
  6
CONTINUOUS
 62
     7
  5
1D5
 10
2.944997
 20
1.849999
 30
0.0
 11
2.994997
 21
1.849999
 31
0.0
  0
LINE
  8
WIRING
  6
CONTINUOUS
 62
     7
  5
1D6
 10
3.4
 20
2.5
 30
0.0
 11
3.4
 21
2.099999
 31
0.0
  0
LINE
  8
WIRING
  6
CONTINUOUS
 62
     7
  5
1D7
 10
3.350001
 20
2.499999
 30
0.0
 11
3.4
 21
2.499999
 31
0.0
  0
LINE
  8
COMPON
  6
CONTINUOUS
 62
     7
  5
1D8
 10
1.5
 20
2.0
 30
0.0
 11
1.525001
 21
2.050001
 31
0.0
  0
LINE
  8
COMPON
  6
CONTINUOUS
 62
     7
  5
1D9
 10
1.525001
 20
2.050001
 30
0.0
 11
1.575001
 21
1.95
 31
0.0
  0
LINE
  8
COMPON
  6
CONTINUOUS
 62
     7
  5
1DA
 10
1.575001
 20
1.95
 30
0.0
 11
1.625
 21
2.050001
 31
0.0
  0
LINE
  8
COMPON
  6
CONTINUOUS
 62
     7
  5
1DB
 10
1.625
 20
2.050001
 30
0.0
 11
1.674999
 21
1.95
 31
0.0
  0
LINE
  8
COMPON
  6
CONTINUOUS
 62
     7
  5
1DC
 10
1.674999
 20
1.95
 30
0.0
 11
1.725002
 21
2.050001
 31
0.0
  0
LINE
  8
COMPON
  6
CONTINUOUS
 62
     7
  5
1DD
 10
1.725002
 20
2.050001
 30
0.0
 11
1.775001
 21
1.95
 31
0.0
  0
LINE
  8
COMPON
  6
CONTINUOUS
 62
     7
  5
1DE
 10
1.775001
 20
1.95
 30
0.0
 11
1.799999
 21
2.0
 31
0.0
  0
LINE
  8
COMPON
  6
CONTINUOUS
 62
     7
  5
1DF
 10
1.799999
 20
2.0
 30
0.0
 11
1.850002
 21
2.0
 31
0.0
  0
LINE
  8
WIRING
  6
CONTINUOUS
 62
     7
  5
1E0
 10
1.5
 20
2.0
 30
0.0
 11
1.35
 21
2.0
 31
0.0
  0
LINE
  8
WIRING
  6
CONTINUOUS
 62
     7
  5
1E1
 10
2.75
 20
2.0
 30
0.0
 11
2.550001
 21
2.0
 31
0.0
  0
LINE
  8
COMPON
  6
CONTINUOUS
 62
     7
  5
1E2
 10
2.550001
 20
1.850001
 30
0.0
 11
2.600001
 21
1.825
 31
0.0
  0
LINE
  8
COMPON
  6
CONTINUOUS
 62
     7
  5
1E3
 10
2.600001
 20
1.825
 30
0.0
 11
2.5
 21
1.775001
 31
0.0
  0
LINE
  8
COMPON
  6
CONTINUOUS
 62
     7
  5
1E4
 10
2.5
 20
1.775001
 30
0.0
 11
2.600001
 21
1.725001
 31
0.0
  0
LINE
  8
COMPON
  6
CONTINUOUS
 62
     7
  5
1E5
 10
2.600001
 20
1.725001
 30
0.0
 11
2.5
 21
1.675002
 31
0.0
  0
LINE
  8
COMPON
  6
CONTINUOUS
 62
     7
  5
1E6
 10
2.5
 20
1.675002
 30
0.0
 11
2.600001
 21
1.624999
 31
0.0
  0
LINE
  8
COMPON
  6
CONTINUOUS
 62
     7
  5
1E7
 10
2.600001
 20
1.624999
 30
0.0
 11
2.5
 21
1.575
 31
0.0
  0
LINE
  8
COMPON
  6
CONTINUOUS
 62
     7
  5
1E8
 10
2.5
 20
1.575
 30
0.0
 11
2.550001
 21
1.550002
 31
0.0
  0
LINE
  8
COMPON
  6
CONTINUOUS
 62
     7
  5
1E9
 10
2.550001
 20
1.550002
 30
0.0
 11
2.550001
 21
1.499999
 31
0.0
  0
LINE
  8
WIRING
  6
CONTINUOUS
 62
     7
  5
1EA
 10
2.550001
 20
1.850001
 30
0.0
 11
2.550001
 21
2.000001
 31
0.0
  0
LINE
  8
WIRING
  6
CONTINUOUS
 62
     7
  5
1EB
 10
2.550001
 20
2.0
 30
0.0
 11
2.300001
 21
2.0
 31
0.0
  0
LINE
  8
WIRING
  6
CONTINUOUS
 62
     7
  5
1EC
 10
2.300001
 20
2.0
 30
0.0
 11
2.300001
 21
1.85
 31
0.0
  0
LINE
  8
WIRING
  6
CONTINUOUS
 62
     7
  5
1ED
 10
2.300001
 20
1.7
 30
0.0
 11
2.200001
 21
1.85
 31
0.0
  0
LINE
  8
WIRING
  6
CONTINUOUS
 62
     7
  5
1EE
 10
2.550001
 20
1.5
 30
0.0
 11
2.550001
 21
1.1
 31
0.0
  0
LINE
  8
WIRING
  6
CONTINUOUS
 62
     7
  5
1EF
 10
2.550001
 20
1.1
 30
0.0
 11
2.300001
 21
1.1
 31
0.0
  0
LINE
  8
WIRING
  6
CONTINUOUS
 62
     7
  5
1F0
 10
2.300001
 20
2.0
 30
0.0
 11
2.100001
 21
2.0
 31
0.0
  0
LINE
  8
WIRING
  6
CONTINUOUS
 62
     7
  5
1F1
 10
2.144998
 20
2.0
 30
0.0
 11
2.0
 21
2.0
 31
0.0
  0
LINE
  8
WIRING
  6
CONTINUOUS
 62
     7
  5
1F2
 10
2.000002
 20
2.0
 30
0.0
 11
2.000002
 21
1.700001
 31
0.0
  0
LINE
  8
WIRING
  6
CONTINUOUS
 62
     7
  5
1F3
 10
2.0
 20
2.0
 30
0.0
 11
1.850001
 21
2.0
 31
0.0
  0
LINE
  8
WIRING
  6
CONTINUOUS
 62
     7
  5
1F4
 10
2.0
 20
1.1
 30
0.0
 11
2.300001
 21
1.1
 31
0.0
  0
LINE
  8
WIRING
  6
CONTINUOUS
 62
     7
  5
1F5
 10
2.550001
 20
1.1
 30
0.0
 11
2.550001
 21
1.0
 31
0.0
  0
LINE
  8
WIRING
  6
CONTINUOUS
 62
     7
  5
1F6
 10
2.550001
 20
1.0
 30
0.0
 11
2.5
 21
1.0
 31
0.0
  0
LINE
  8
WIRING
  6
CONTINUOUS
 62
     7
  5
1F7
 10
2.5
 20
1.0
 30
0.0
 11
2.550001
 21
0.900001
 31
0.0
  0
LINE
  8
WIRING
  6
CONTINUOUS
 62
     7
  5
1F8
 10
2.550001
 20
0.900001
 30
0.0
 11
2.600001
 21
1.0
 31
0.0
  0
LINE
  8
WIRING
  6
CONTINUOUS
 62
     7
  5
1F9
 10
2.600001
 20
1.0
 30
0.0
 11
2.550001
 21
1.0
 31
0.0
  0
LINE
  8
COMPON
  6
CONTINUOUS
 62
     7
  5
1FA
 10
2.300001
 20
1.600001
 30
0.0
 11
2.350001
 21
1.575
 31
0.0
  0
LINE
  8
COMPON
  6
CONTINUOUS
 62
     7
  5
1FB
 10
2.350001
 20
1.575
 30
0.0
 11
2.25
 21
1.525001
 31
0.0
  0
LINE
  8
COMPON
  6
CONTINUOUS
 62
     7
  5
1FC
 10
2.25
 20
1.525001
 30
0.0
 11
2.350001
 21
1.475001
 31
0.0
  0
LINE
  8
COMPON
  6
CONTINUOUS
 62
     7
  5
1FD
 10
2.350001
 20
1.475001
 30
0.0
 11
2.25
 21
1.425002
 31
0.0
  0
LINE
  8
COMPON
  6
CONTINUOUS
 62
     7
  5
1FE
 10
2.25
 20
1.425002
 30
0.0
 11
2.350001
 21
1.374999
 31
0.0
  0
LINE
  8
COMPON
  6
CONTINUOUS
 62
     7
  5
1FF
 10
2.350001
 20
1.374999
 30
0.0
 11
2.25
 21
1.325
 31
0.0
  0
LINE
  8
COMPON
  6
CONTINUOUS
 62
     7
  5
200
 10
2.25
 20
1.325
 30
0.0
 11
2.300001
 21
1.300002
 31
0.0
  0
LINE
  8
WIRING
  6
CONTINUOUS
 62
     7
  5
201
 10
2.300001
 20
1.6
 30
0.0
 11
2.300001
 21
1.7
 31
0.0
  0
LINE
  8
WIRING
  6
CONTINUOUS
 62
     7
  5
202
 10
2.300001
 20
1.3
 30
0.0
 11
2.300001
 21
1.1
 31
0.0
  0
INSERT
  8
COMPON
  6
TYPE___1
 62
     7
  5
203
  2
XCON-DOT
 10
2.300002
 20
1.85
 30
0.0
 50
90.0
  0
INSERT
  8
COMPON
  6
TYPE___1
 62
     7
  5
204
  2
XCON-DOT
 10
2.300002
 20
1.85
 30
0.0
 50
90.0
  0
INSERT
  8
COMPON
  6
TYPE___1
 62
     7
  5
205
  2
XCON-DOT
 10
2.300002
 20
1.85
 30
0.0
 50
90.0
  0
INSERT
  8
COMPON
  6
TYPE___1
 62
     7
  5
206
  2
XCON-DOT
 10
2.300002
 20
1.7
 30
0.0
 50
90.0
  0
INSERT
  8
COMPON
  6
TYPE___1
 62
     7
  5
207
  2
XCON-DOT
 10
2.300002
 20
1.7
 30
0.0
 50
90.0
  0
INSERT
  8
COMPON
  6
TYPE___1
 62
     7
  5
208
  2
XCON-DOT
 10
2.300002
 20
1.7
 30
0.0
 50
90.0
  0
LINE
  8
COMPON
  6
CONTINUOUS
 62
     7
  5
209
 10
3.894997
 20
0.9
 30
0.0
 11
3.944997
 21
0.9
 31
0.0
  0
LINE
  8
COMPON
  6
CONTINUOUS
 62
     7
  5
20A
 10
3.894997
 20
0.7
 30
0.0
 11
3.944997
 21
0.7
 31
0.0
  0
LINE
  8
COMPON
  6
CONTINUOUS
 62
     7
  5
20B
 10
3.944997
 20
0.550001
 30
0.0
 11
3.944997
 21
1.050001
 31
0.0
  0
LINE
  8
COMPON
  6
CONTINUOUS
 62
     7
  5
20C
 10
3.944997
 20
1.050001
 30
0.0
 11
4.444997
 21
0.800001
 31
0.0
  0
LINE
  8
COMPON
  6
CONTINUOUS
 62
     7
  5
20D
 10
4.444997
 20
0.800001
 30
0.0
 11
3.944997
 21
0.550001
 31
0.0
  0
LINE
  8
COMPON
  6
CONTINUOUS
 62
     7
  5
20E
 10
3.969998
 20
0.7
 30
0.0
 11
4.019998
 21
0.7
 31
0.0
  0
LINE
  8
COMPON
  6
CONTINUOUS
 62
     7
  5
20F
 10
3.995
 20
0.725
 30
0.0
 11
3.995
 21
0.675001
 31
0.0
  0
LINE
  8
COMPON
  6
CONTINUOUS
 62
     7
  5
210
 10
3.969998
 20
0.9
 30
0.0
 11
4.019998
 21
0.9
 31
0.0
  0
LINE
  8
COMPON
  6
CONTINUOUS
 62
     7
  5
211
 10
3.644997
 20
1.2
 30
0.0
 11
3.694997
 21
1.2
 31
0.0
  0
LINE
  8
COMPON
  6
CONTINUOUS
 62
     7
  5
212
 10
3.694997
 20
1.2
 30
0.0
 11
3.719998
 21
1.250001
 31
0.0
  0
LINE
  8
COMPON
  6
CONTINUOUS
 62
     7
  5
213
 10
3.719998
 20
1.250001
 30
0.0
 11
3.769997
 21
1.150001
 31
0.0
  0
LINE
  8
COMPON
  6
CONTINUOUS
 62
     7
  5
214
 10
3.769997
 20
1.150001
 30
0.0
 11
3.819997
 21
1.250001
 31
0.0
  0
LINE
  8
COMPON
  6
CONTINUOUS
 62
     7
  5
215
 10
3.819997
 20
1.250001
 30
0.0
 11
3.869996
 21
1.150001
 31
0.0
  0
LINE
  8
COMPON
  6
CONTINUOUS
 62
     7
  5
216
 10
3.869996
 20
1.150001
 30
0.0
 11
3.919999
 21
1.250001
 31
0.0
  0
LINE
  8
COMPON
  6
CONTINUOUS
 62
     7
  5
217
 10
3.919999
 20
1.250001
 30
0.0
 11
3.969998
 21
1.150001
 31
0.0
  0
LINE
  8
COMPON
  6
CONTINUOUS
 62
     7
  5
218
 10
3.969998
 20
1.150001
 30
0.0
 11
3.994996
 21
1.2
 31
0.0
  0
LINE
  8
COMPON
  6
CONTINUOUS
 62
     7
  5
219
 10
3.994996
 20
1.2
 30
0.0
 11
4.044999
 21
1.2
 31
0.0
  0
LINE
  8
COMPON
  6
CONTINUOUS
 62
     7
  5
21A
 10
3.844998
 20
1.150001
 30
0.0
 11
3.844998
 21
1.050001
 31
0.0
  0
LINE
  8
COMPON
  6
CONTINUOUS
 62
     7
  5
21B
 10
3.87
 20
1.100001
 30
0.0
 11
3.844998
 21
1.150001
 31
0.0
  0
LINE
  8
WIRING
  6
CONTINUOUS
 62
     7
  5
21C
 10
3.87
 20
1.100001
 30
0.0
 11
3.819997
 21
1.100001
 31
0.0
  0
LINE
  8
WIRING
  6
CONTINUOUS
 62
     7
  5
21D
 10
3.894997
 20
0.9
 30
0.0
 11
3.844998
 21
0.9
 31
0.0
  0
LINE
  8
WIRING
  6
CONTINUOUS
 62
     7
  5
21E
 10
3.844998
 20
0.9
 30
0.0
 11
3.844998
 21
1.05
 31
0.0
  0
LINE
  8
WIRING
  6
CONTINUOUS
 62
     7
  5
21F
 10
4.044999
 20
1.2
 30
0.0
 11
4.594998
 21
1.2
 31
0.0
  0
LINE
  8
WIRING
  6
CONTINUOUS
 62
     7
  5
220
 10
4.594998
 20
0.8
 30
0.0
 11
4.444997
 21
0.8
 31
0.0
  0
LINE
  8
COMPON
  6
CONTINUOUS
 62
     7
  5
221
 10
3.144997
 20
1.2
 30
0.0
 11
3.169999
 21
1.25
 31
0.0
  0
LINE
  8
COMPON
  6
CONTINUOUS
 62
     7
  5
222
 10
3.169999
 20
1.25
 30
0.0
 11
3.219998
 21
1.15
 31
0.0
  0
LINE
  8
COMPON
  6
CONTINUOUS
 62
     7
  5
223
 10
3.219998
 20
1.15
 30
0.0
 11
3.269997
 21
1.25
 31
0.0
  0
LINE
  8
COMPON
  6
CONTINUOUS
 62
     7
  5
224
 10
3.269997
 20
1.25
 30
0.0
 11
3.319997
 21
1.15
 31
0.0
  0
LINE
  8
COMPON
  6
CONTINUOUS
 62
     7
  5
225
 10
3.319997
 20
1.15
 30
0.0
 11
3.37
 21
1.25
 31
0.0
  0
LINE
  8
COMPON
  6
CONTINUOUS
 62
     7
  5
226
 10
3.37
 20
1.25
 30
0.0
 11
3.419999
 21
1.15
 31
0.0
  0
LINE
  8
COMPON
  6
CONTINUOUS
 62
     7
  5
227
 10
3.419999
 20
1.15
 30
0.0
 11
3.444997
 21
1.2
 31
0.0
  0
LINE
  8
COMPON
  6
CONTINUOUS
 62
     7
  5
228
 10
3.444997
 20
1.2
 30
0.0
 11
3.495
 21
1.2
 31
0.0
  0
LINE
  8
WIRING
  6
CONTINUOUS
 62
     7
  5
229
 10
3.644997
 20
1.2
 30
0.0
 11
3.495
 21
1.2
 31
0.0
  0
LINE
  8
WIRING
  6
CONTINUOUS
 62
     7
  5
22A
 10
3.844998
 20
0.7
 30
0.0
 11
3.894997
 21
0.7
 31
0.0
  0
LINE
  8
WIRING
  6
CONTINUOUS
 62
     7
  5
22B
 10
3.144997
 20
1.2
 30
0.0
 11
2.994998
 21
1.2
 31
0.0
  0
LINE
  8
WIRING
  6
CONTINUOUS
 62
     7
  5
22C
 10
2.994998
 20
1.2
 30
0.0
 11
2.844998
 21
1.2
 31
0.0
  0
LINE
  8
WIRING
  6
CONTINUOUS
 62
     7
  5
22D
 10
2.844998
 20
1.2
 30
0.0
 11
2.844998
 21
1.0
 31
0.0
  0
LINE
  8
WIRING
  6
CONTINUOUS
 62
     7
  5
22E
 10
2.844998
 20
1.0
 30
0.0
 11
2.794999
 21
1.0
 31
0.0
  0
LINE
  8
WIRING
  6
CONTINUOUS
 62
     7
  5
22F
 10
2.794999
 20
1.0
 30
0.0
 11
2.844998
 21
0.9
 31
0.0
  0
LINE
  8
WIRING
  6
CONTINUOUS
 62
     7
  5
230
 10
2.844998
 20
0.9
 30
0.0
 11
2.894997
 21
1.0
 31
0.0
  0
LINE
  8
WIRING
  6
CONTINUOUS
 62
     7
  5
231
 10
2.894997
 20
1.0
 30
0.0
 11
2.794999
 21
1.0
 31
0.0
  0
LINE
  8
COMPON
  6
CONTINUOUS
 62
     7
  5
232
 10
4.194997
 20
0.95
 30
0.0
 11
4.194997
 21
1.0
 31
0.0
  0
TEXT
  8
COMPON
  6
CONTINUOUS
 62
     7
  5
233
 10
4.194997
 20
1.05
 30
0.0
 40
0.05
  1
+5
  7
VC-TEXTSTYLE0
  0
LINE
  8
COMPON
  6
CONTINUOUS
 62
     7
  5
234
 10
4.194997
 20
0.65
 30
0.0
 11
4.194997
 21
0.55
 31
0.0
  0
LINE
  8
COMPON
  6
CONTINUOUS
 62
     7
  5
235
 10
4.194997
 20
0.55
 30
0.0
 11
4.245
 21
0.55
 31
0.0
  0
LINE
  8
COMPON
  6
CONTINUOUS
 62
     7
  5
236
 10
4.245
 20
0.55
 30
0.0
 11
4.194997
 21
0.45
 31
0.0
  0
LINE
  8
COMPON
  6
CONTINUOUS
 62
     7
  5
237
 10
4.194997
 20
0.45
 30
0.0
 11
4.144998
 21
0.55
 31
0.0
  0
LINE
  8
COMPON
  6
CONTINUOUS
 62
     7
  5
238
 10
4.144998
 20
0.55
 30
0.0
 11
4.194997
 21
0.55
 31
0.0
  0
LINE
  8
WIRING
  6
CONTINUOUS
 62
     7
  5
239
 10
4.6
 20
1.2
 30
0.0
 11
4.6
 21
0.8
 31
0.0
  0
LINE
  8
WIRING
  6
CONTINUOUS
 62
     7
  5
23A
 10
4.550001
 20
1.199999
 30
0.0
 11
4.6
 21
1.199999
 31
0.0
  0
LINE
  8
COMPON
  6
CONTINUOUS
 62
     7
  5
23B
 10
2.7
 20
0.700001
 30
0.0
 11
2.725001
 21
0.750001
 31
0.0
  0
LINE
  8
COMPON
  6
CONTINUOUS
 62
     7
  5
23C
 10
2.725001
 20
0.750001
 30
0.0
 11
2.775001
 21
0.650001
 31
0.0
  0
LINE
  8
COMPON
  6
CONTINUOUS
 62
     7
  5
23D
 10
2.775001
 20
0.650001
 30
0.0
 11
2.825
 21
0.750001
 31
0.0
  0
LINE
  8
COMPON
  6
CONTINUOUS
 62
     7
  5
23E
 10
2.825
 20
0.750001
 30
0.0
 11
2.874999
 21
0.650001
 31
0.0
  0
LINE
  8
COMPON
  6
CONTINUOUS
 62
     7
  5
23F
 10
2.874999
 20
0.650001
 30
0.0
 11
2.925002
 21
0.750001
 31
0.0
  0
LINE
  8
COMPON
  6
CONTINUOUS
 62
     7
  5
240
 10
2.925002
 20
0.750001
 30
0.0
 11
2.975001
 21
0.650001
 31
0.0
  0
LINE
  8
COMPON
  6
CONTINUOUS
 62
     7
  5
241
 10
2.975001
 20
0.650001
 30
0.0
 11
2.999999
 21
0.700001
 31
0.0
  0
LINE
  8
COMPON
  6
CONTINUOUS
 62
     7
  5
242
 10
2.999999
 20
0.700001
 30
0.0
 11
3.050002
 21
0.700001
 31
0.0
  0
LINE
  8
WIRING
  6
CONTINUOUS
 62
     7
  5
243
 10
2.7
 20
0.700001
 30
0.0
 11
2.55
 21
0.700001
 31
0.0
  0
LINE
  8
WIRING
  6
CONTINUOUS
 62
     7
  5
244
 10
2.255003
 20
0.700001
 30
0.0
 11
2.550002
 21
0.700001
 31
0.0
  0
LINE
  8
WIRING
  6
CONTINUOUS
 62
     7
  5
245
 10
3.950001
 20
0.700001
 30
0.0
 11
3.750001
 21
0.700001
 31
0.0
  0
LINE
  8
COMPON
  6
CONTINUOUS
 62
     7
  5
246
 10
3.750001
 20
0.550002
 30
0.0
 11
3.800001
 21
0.525
 31
0.0
  0
LINE
  8
COMPON
  6
CONTINUOUS
 62
     7
  5
247
 10
3.800001
 20
0.525
 30
0.0
 11
3.700001
 21
0.475001
 31
0.0
  0
LINE
  8
COMPON
  6
CONTINUOUS
 62
     7
  5
248
 10
3.700001
 20
0.475001
 30
0.0
 11
3.800001
 21
0.425002
 31
0.0
  0
LINE
  8
COMPON
  6
CONTINUOUS
 62
     7
  5
249
 10
3.800001
 20
0.425002
 30
0.0
 11
3.700001
 21
0.375002
 31
0.0
  0
LINE
  8
COMPON
  6
CONTINUOUS
 62
     7
  5
24A
 10
3.700001
 20
0.375002
 30
0.0
 11
3.800001
 21
0.324999
 31
0.0
  0
LINE
  8
COMPON
  6
CONTINUOUS
 62
     7
  5
24B
 10
3.800001
 20
0.324999
 30
0.0
 11
3.700001
 21
0.275
 31
0.0
  0
LINE
  8
COMPON
  6
CONTINUOUS
 62
     7
  5
24C
 10
3.700001
 20
0.275
 30
0.0
 11
3.750001
 21
0.250002
 31
0.0
  0
LINE
  8
COMPON
  6
CONTINUOUS
 62
     7
  5
24D
 10
3.750001
 20
0.250002
 30
0.0
 11
3.750001
 21
0.199999
 31
0.0
  0
LINE
  8
WIRING
  6
CONTINUOUS
 62
     7
  5
24E
 10
3.750001
 20
0.550002
 30
0.0
 11
3.750001
 21
0.700001
 31
0.0
  0
LINE
  8
WIRING
  6
CONTINUOUS
 62
     7
  5
24F
 10
3.750001
 20
0.700001
 30
0.0
 11
3.500001
 21
0.700001
 31
0.0
  0
LINE
  8
WIRING
  6
CONTINUOUS
 62
     7
  5
250
 10
3.500001
 20
0.700001
 30
0.0
 11
3.500001
 21
0.550001
 31
0.0
  0
LINE
  8
WIRING
  6
CONTINUOUS
 62
     7
  5
251
 10
3.500001
 20
0.400001
 30
0.0
 11
3.400001
 21
0.550001
 31
0.0
  0
LINE
  8
WIRING
  6
CONTINUOUS
 62
     7
  5
252
 10
3.750001
 20
0.2
 30
0.0
 11
3.750001
 21
-0.199999
 31
0.0
  0
LINE
  8
WIRING
  6
CONTINUOUS
 62
     7
  5
253
 10
3.750001
 20
-0.199999
 30
0.0
 11
3.500001
 21
-0.199999
 31
0.0
  0
LINE
  8
WIRING
  6
CONTINUOUS
 62
     7
  5
254
 10
3.500001
 20
0.700001
 30
0.0
 11
3.300001
 21
0.700001
 31
0.0
  0
LINE
  8
WIRING
  6
CONTINUOUS
 62
     7
  5
255
 10
3.344998
 20
0.7
 30
0.0
 11
3.200001
 21
0.700001
 31
0.0
  0
LINE
  8
WIRING
  6
CONTINUOUS
 62
     7
  5
256
 10
3.200002
 20
0.700001
 30
0.0
 11
3.200002
 21
0.400002
 31
0.0
  0
LINE
  8
WIRING
  6
CONTINUOUS
 62
     7
  5
257
 10
3.200002
 20
0.400002
 30
0.0
 11
3.150002
 21
0.400002
 31
0.0
  0
LINE
  8
WIRING
  6
CONTINUOUS
 62
     7
  5
258
 10
3.150002
 20
0.400002
 30
0.0
 11
3.250001
 21
0.400002
 31
0.0
  0
LINE
  8
WIRING
  6
CONTINUOUS
 62
     7
  5
259
 10
3.150002
 20
0.35
 30
0.0
 11
3.250001
 21
0.35
 31
0.0
  0
LINE
  8
WIRING
  6
CONTINUOUS
 62
     7
  5
25A
 10
3.200002
 20
0.35
 30
0.0
 11
3.200002
 21
0.1
 31
0.0
  0
LINE
  8
WIRING
  6
CONTINUOUS
 62
     7
  5
25B
 10
3.200001
 20
0.700001
 30
0.0
 11
3.050001
 21
0.700001
 31
0.0
  0
LINE
  8
WIRING
  6
CONTINUOUS
 62
     7
  5
25C
 10
3.200001
 20
-0.199999
 30
0.0
 11
3.500001
 21
-0.199999
 31
0.0
  0
LINE
  8
WIRING
  6
CONTINUOUS
 62
     7
  5
25D
 10
3.750001
 20
-0.199999
 30
0.0
 11
3.750001
 21
-0.3
 31
0.0
  0
LINE
  8
WIRING
  6
CONTINUOUS
 62
     7
  5
25E
 10
3.750001
 20
-0.3
 30
0.0
 11
3.700001
 21
-0.3
 31
0.0
  0
LINE
  8
WIRING
  6
CONTINUOUS
 62
     7
  5
25F
 10
3.700001
 20
-0.3
 30
0.0
 11
3.750001
 21
-0.399999
 31
0.0
  0
LINE
  8
WIRING
  6
CONTINUOUS
 62
     7
  5
260
 10
3.750001
 20
-0.399999
 30
0.0
 11
3.800001
 21
-0.3
 31
0.0
  0
LINE
  8
WIRING
  6
CONTINUOUS
 62
     7
  5
261
 10
3.800001
 20
-0.3
 30
0.0
 11
3.750001
 21
-0.3
 31
0.0
  0
LINE
  8
COMPON
  6
CONTINUOUS
 62
     7
  5
262
 10
3.500001
 20
0.300002
 30
0.0
 11
3.550001
 21
0.275
 31
0.0
  0
LINE
  8
COMPON
  6
CONTINUOUS
 62
     7
  5
263
 10
3.550001
 20
0.275
 30
0.0
 11
3.450001
 21
0.225001
 31
0.0
  0
LINE
  8
COMPON
  6
CONTINUOUS
 62
     7
  5
264
 10
3.450001
 20
0.225001
 30
0.0
 11
3.550001
 21
0.175002
 31
0.0
  0
LINE
  8
COMPON
  6
CONTINUOUS
 62
     7
  5
265
 10
3.550001
 20
0.175002
 30
0.0
 11
3.450001
 21
0.125002
 31
0.0
  0
LINE
  8
COMPON
  6
CONTINUOUS
 62
     7
  5
266
 10
3.450001
 20
0.125002
 30
0.0
 11
3.550001
 21
0.074999
 31
0.0
  0
LINE
  8
COMPON
  6
CONTINUOUS
 62
     7
  5
267
 10
3.550001
 20
0.074999
 30
0.0
 11
3.450001
 21
0.025
 31
0.0
  0
LINE
  8
COMPON
  6
CONTINUOUS
 62
     7
  5
268
 10
3.450001
 20
0.025
 30
0.0
 11
3.500001
 21
0.000002
 31
0.0
  0
LINE
  8
WIRING
  6
CONTINUOUS
 62
     7
  5
269
 10
3.500001
 20
0.300001
 30
0.0
 11
3.500001
 21
0.400001
 31
0.0
  0
LINE
  8
WIRING
  6
CONTINUOUS
 62
     7
  5
26A
 10
3.500001
 20
0.0
 30
0.0
 11
3.500001
 21
-0.199999
 31
0.0
  0
INSERT
  8
COMPON
  6
TYPE___1
 62
     7
  5
26B
  2
XCON-DOT
 10
3.500002
 20
0.550001
 30
0.0
 50
90.0
  0
INSERT
  8
COMPON
  6
TYPE___1
 62
     7
  5
26C
  2
XCON-DOT
 10
3.500002
 20
0.550001
 30
0.0
 50
90.0
  0
INSERT
  8
COMPON
  6
TYPE___1
 62
     7
  5
26D
  2
XCON-DOT
 10
3.500002
 20
0.550001
 30
0.0
 50
90.0
  0
INSERT
  8
COMPON
  6
TYPE___1
 62
     7
  5
26E
  2
XCON-DOT
 10
3.500002
 20
0.400001
 30
0.0
 50
90.0
  0
INSERT
  8
COMPON
  6
TYPE___1
 62
     7
  5
26F
  2
XCON-DOT
 10
3.500002
 20
0.400001
 30
0.0
 50
90.0
  0
INSERT
  8
COMPON
  6
TYPE___1
 62
     7
  5
270
  2
XCON-DOT
 10
3.500002
 20
0.400001
 30
0.0
 50
90.0
  0
LINE
  8
COMPON
  6
CONTINUOUS
 62
     7
  5
271
 10
2.694997
 20
-0.6
 30
0.0
 11
2.744997
 21
-0.6
 31
0.0
  0
LINE
  8
COMPON
  6
CONTINUOUS
 62
     7
  5
272
 10
2.694997
 20
-0.8
 30
0.0
 11
2.744997
 21
-0.8
 31
0.0
  0
LINE
  8
COMPON
  6
CONTINUOUS
 62
     7
  5
273
 10
2.744997
 20
-0.95
 30
0.0
 11
2.744997
 21
-0.45
 31
0.0
  0
LINE
  8
COMPON
  6
CONTINUOUS
 62
     7
  5
274
 10
2.744997
 20
-0.45
 30
0.0
 11
3.244997
 21
-0.7
 31
0.0
  0
LINE
  8
COMPON
  6
CONTINUOUS
 62
     7
  5
275
 10
3.244997
 20
-0.7
 30
0.0
 11
2.744997
 21
-0.95
 31
0.0
  0
LINE
  8
COMPON
  6
CONTINUOUS
 62
     7
  5
276
 10
2.769998
 20
-0.8
 30
0.0
 11
2.819997
 21
-0.8
 31
0.0
  0
LINE
  8
COMPON
  6
CONTINUOUS
 62
     7
  5
277
 10
2.795
 20
-0.775001
 30
0.0
 11
2.795
 21
-0.825
 31
0.0
  0
LINE
  8
COMPON
  6
CONTINUOUS
 62
     7
  5
278
 10
2.769998
 20
-0.6
 30
0.0
 11
2.819997
 21
-0.6
 31
0.0
  0
LINE
  8
COMPON
  6
CONTINUOUS
 62
     7
  5
279
 10
2.444997
 20
-0.3
 30
0.0
 11
2.494997
 21
-0.3
 31
0.0
  0
LINE
  8
COMPON
  6
CONTINUOUS
 62
     7
  5
27A
 10
2.494997
 20
-0.3
 30
0.0
 11
2.519998
 21
-0.249999
 31
0.0
  0
LINE
  8
COMPON
  6
CONTINUOUS
 62
     7
  5
27B
 10
2.519998
 20
-0.249999
 30
0.0
 11
2.569997
 21
-0.349999
 31
0.0
  0
LINE
  8
COMPON
  6
CONTINUOUS
 62
     7
  5
27C
 10
2.569997
 20
-0.349999
 30
0.0
 11
2.619997
 21
-0.249999
 31
0.0
  0
LINE
  8
COMPON
  6
CONTINUOUS
 62
     7
  5
27D
 10
2.619997
 20
-0.249999
 30
0.0
 11
2.669996
 21
-0.349999
 31
0.0
  0
LINE
  8
COMPON
  6
CONTINUOUS
 62
     7
  5
27E
 10
2.669996
 20
-0.349999
 30
0.0
 11
2.719999
 21
-0.249999
 31
0.0
  0
LINE
  8
COMPON
  6
CONTINUOUS
 62
     7
  5
27F
 10
2.719999
 20
-0.249999
 30
0.0
 11
2.769998
 21
-0.349999
 31
0.0
  0
LINE
  8
COMPON
  6
CONTINUOUS
 62
     7
  5
280
 10
2.769998
 20
-0.349999
 30
0.0
 11
2.794996
 21
-0.3
 31
0.0
  0
LINE
  8
COMPON
  6
CONTINUOUS
 62
     7
  5
281
 10
2.794996
 20
-0.3
 30
0.0
 11
2.844999
 21
-0.3
 31
0.0
  0
LINE
  8
COMPON
  6
CONTINUOUS
 62
     7
  5
282
 10
2.644998
 20
-0.349999
 30
0.0
 11
2.644998
 21
-0.45
 31
0.0
  0
LINE
  8
COMPON
  6
CONTINUOUS
 62
     7
  5
283
 10
2.67
 20
-0.4
 30
0.0
 11
2.644998
 21
-0.349999
 31
0.0
  0
LINE
  8
WIRING
  6
CONTINUOUS
 62
     7
  5
284
 10
2.67
 20
-0.4
 30
0.0
 11
2.619997
 21
-0.4
 31
0.0
  0
LINE
  8
WIRING
  6
CONTINUOUS
 62
     7
  5
285
 10
2.694997
 20
-0.6
 30
0.0
 11
2.644998
 21
-0.6
 31
0.0
  0
LINE
  8
WIRING
  6
CONTINUOUS
 62
     7
  5
286
 10
2.644998
 20
-0.6
 30
0.0
 11
2.644998
 21
-0.450001
 31
0.0
  0
LINE
  8
WIRING
  6
CONTINUOUS
 62
     7
  5
287
 10
2.844999
 20
-0.3
 30
0.0
 11
3.394998
 21
-0.3
 31
0.0
  0
LINE
  8
WIRING
  6
CONTINUOUS
 62
     7
  5
288
 10
3.394998
 20
-0.700001
 30
0.0
 11
3.244997
 21
-0.700001
 31
0.0
  0
LINE
  8
COMPON
  6
CONTINUOUS
 62
     7
  5
289
 10
1.944997
 20
-0.3
 30
0.0
 11
1.969999
 21
-0.25
 31
0.0
  0
LINE
  8
COMPON
  6
CONTINUOUS
 62
     7
  5
28A
 10
1.969999
 20
-0.25
 30
0.0
 11
2.019998
 21
-0.35
 31
0.0
  0
LINE
  8
COMPON
  6
CONTINUOUS
 62
     7
  5
28B
 10
2.019998
 20
-0.35
 30
0.0
 11
2.069997
 21
-0.25
 31
0.0
  0
LINE
  8
COMPON
  6
CONTINUOUS
 62
     7
  5
28C
 10
2.069997
 20
-0.25
 30
0.0
 11
2.119997
 21
-0.35
 31
0.0
  0
LINE
  8
COMPON
  6
CONTINUOUS
 62
     7
  5
28D
 10
2.119997
 20
-0.35
 30
0.0
 11
2.17
 21
-0.25
 31
0.0
  0
LINE
  8
COMPON
  6
CONTINUOUS
 62
     7
  5
28E
 10
2.17
 20
-0.25
 30
0.0
 11
2.219999
 21
-0.35
 31
0.0
  0
LINE
  8
COMPON
  6
CONTINUOUS
 62
     7
  5
28F
 10
2.219999
 20
-0.35
 30
0.0
 11
2.244997
 21
-0.3
 31
0.0
  0
LINE
  8
COMPON
  6
CONTINUOUS
 62
     7
  5
290
 10
2.244997
 20
-0.3
 30
0.0
 11
2.295
 21
-0.3
 31
0.0
  0
LINE
  8
WIRING
  6
CONTINUOUS
 62
     7
  5
291
 10
2.444997
 20
-0.3
 30
0.0
 11
2.295
 21
-0.3
 31
0.0
  0
LINE
  8
WIRING
  6
CONTINUOUS
 62
     7
  5
292
 10
2.644998
 20
-0.8
 30
0.0
 11
2.694997
 21
-0.8
 31
0.0
  0
LINE
  8
WIRING
  6
CONTINUOUS
 62
     7
  5
293
 10
1.944997
 20
-0.3
 30
0.0
 11
1.794998
 21
-0.3
 31
0.0
  0
LINE
  8
WIRING
  6
CONTINUOUS
 62
     7
  5
294
 10
1.794998
 20
-0.3
 30
0.0
 11
1.644998
 21
-0.3
 31
0.0
  0
LINE
  8
WIRING
  6
CONTINUOUS
 62
     7
  5
295
 10
1.644998
 20
-0.3
 30
0.0
 11
1.644998
 21
-0.5
 31
0.0
  0
LINE
  8
WIRING
  6
CONTINUOUS
 62
     7
  5
296
 10
1.644998
 20
-0.5
 30
0.0
 11
1.594999
 21
-0.5
 31
0.0
  0
LINE
  8
WIRING
  6
CONTINUOUS
 62
     7
  5
297
 10
1.594999
 20
-0.5
 30
0.0
 11
1.644998
 21
-0.6
 31
0.0
  0
LINE
  8
WIRING
  6
CONTINUOUS
 62
     7
  5
298
 10
1.644998
 20
-0.6
 30
0.0
 11
1.694997
 21
-0.5
 31
0.0
  0
LINE
  8
WIRING
  6
CONTINUOUS
 62
     7
  5
299
 10
1.694997
 20
-0.5
 30
0.0
 11
1.594999
 21
-0.5
 31
0.0
  0
LINE
  8
COMPON
  6
CONTINUOUS
 62
     7
  5
29A
 10
2.994997
 20
-0.55
 30
0.0
 11
2.994997
 21
-0.5
 31
0.0
  0
TEXT
  8
COMPON
  6
CONTINUOUS
 62
     7
  5
29B
 10
2.994997
 20
-0.450001
 30
0.0
 40
0.05
  1
+5
  7
VC-TEXTSTYLE0
  0
LINE
  8
COMPON
  6
CONTINUOUS
 62
     7
  5
29C
 10
2.994997
 20
-0.85
 30
0.0
 11
2.994997
 21
-0.950001
 31
0.0
  0
LINE
  8
COMPON
  6
CONTINUOUS
 62
     7
  5
29D
 10
2.994997
 20
-0.950001
 30
0.0
 11
3.045
 21
-0.950001
 31
0.0
  0
LINE
  8
COMPON
  6
CONTINUOUS
 62
     7
  5
29E
 10
3.045
 20
-0.950001
 30
0.0
 11
2.994997
 21
-1.05
 31
0.0
  0
LINE
  8
COMPON
  6
CONTINUOUS
 62
     7
  5
29F
 10
2.994997
 20
-1.05
 30
0.0
 11
2.944997
 21
-0.950001
 31
0.0
  0
LINE
  8
COMPON
  6
CONTINUOUS
 62
     7
  5
2A0
 10
2.944997
 20
-0.950001
 30
0.0
 11
2.994997
 21
-0.950001
 31
0.0
  0
LINE
  8
WIRING
  6
CONTINUOUS
 62
     7
  5
2A1
 10
3.4
 20
-0.3
 30
0.0
 11
3.4
 21
-0.700001
 31
0.0
  0
LINE
  8
WIRING
  6
CONTINUOUS
 62
     7
  5
2A2
 10
3.350001
 20
-0.300001
 30
0.0
 11
3.4
 21
-0.300001
 31
0.0
  0
LINE
  8
COMPON
  6
CONTINUOUS
 62
     7
  5
2A3
 10
1.5
 20
-0.8
 30
0.0
 11
1.525001
 21
-0.75
 31
0.0
  0
LINE
  8
COMPON
  6
CONTINUOUS
 62
     7
  5
2A4
 10
1.525001
 20
-0.75
 30
0.0
 11
1.575001
 21
-0.85
 31
0.0
  0
LINE
  8
COMPON
  6
CONTINUOUS
 62
     7
  5
2A5
 10
1.575001
 20
-0.85
 30
0.0
 11
1.625
 21
-0.75
 31
0.0
  0
LINE
  8
COMPON
  6
CONTINUOUS
 62
     7
  5
2A6
 10
1.625
 20
-0.75
 30
0.0
 11
1.674999
 21
-0.85
 31
0.0
  0
LINE
  8
COMPON
  6
CONTINUOUS
 62
     7
  5
2A7
 10
1.674999
 20
-0.85
 30
0.0
 11
1.725002
 21
-0.75
 31
0.0
  0
LINE
  8
COMPON
  6
CONTINUOUS
 62
     7
  5
2A8
 10
1.725002
 20
-0.75
 30
0.0
 11
1.775001
 21
-0.85
 31
0.0
  0
LINE
  8
COMPON
  6
CONTINUOUS
 62
     7
  5
2A9
 10
1.775001
 20
-0.85
 30
0.0
 11
1.799999
 21
-0.8
 31
0.0
  0
LINE
  8
COMPON
  6
CONTINUOUS
 62
     7
  5
2AA
 10
1.799999
 20
-0.8
 30
0.0
 11
1.850002
 21
-0.8
 31
0.0
  0
LINE
  8
WIRING
  6
CONTINUOUS
 62
     7
  5
2AB
 10
2.75
 20
-0.8
 30
0.0
 11
2.550001
 21
-0.8
 31
0.0
  0
LINE
  8
COMPON
  6
CONTINUOUS
 62
     7
  5
2AC
 10
2.550001
 20
-0.949999
 30
0.0
 11
2.600001
 21
-0.975
 31
0.0
  0
LINE
  8
COMPON
  6
CONTINUOUS
 62
     7
  5
2AD
 10
2.600001
 20
-0.975
 30
0.0
 11
2.5
 21
-1.025
 31
0.0
  0
LINE
  8
COMPON
  6
CONTINUOUS
 62
     7
  5
2AE
 10
2.5
 20
-1.025
 30
0.0
 11
2.600001
 21
-1.074999
 31
0.0
  0
LINE
  8
COMPON
  6
CONTINUOUS
 62
     7
  5
2AF
 10
2.600001
 20
-1.074999
 30
0.0
 11
2.5
 21
-1.124998
 31
0.0
  0
LINE
  8
COMPON
  6
CONTINUOUS
 62
     7
  5
2B0
 10
2.5
 20
-1.124998
 30
0.0
 11
2.600001
 21
-1.175001
 31
0.0
  0
LINE
  8
COMPON
  6
CONTINUOUS
 62
     7
  5
2B1
 10
2.600001
 20
-1.175001
 30
0.0
 11
2.5
 21
-1.225
 31
0.0
  0
LINE
  8
COMPON
  6
CONTINUOUS
 62
     7
  5
2B2
 10
2.5
 20
-1.225
 30
0.0
 11
2.550001
 21
-1.249998
 31
0.0
  0
LINE
  8
COMPON
  6
CONTINUOUS
 62
     7
  5
2B3
 10
2.550001
 20
-1.249998
 30
0.0
 11
2.550001
 21
-1.300001
 31
0.0
  0
LINE
  8
WIRING
  6
CONTINUOUS
 62
     7
  5
2B4
 10
2.550001
 20
-0.949999
 30
0.0
 11
2.550001
 21
-0.799999
 31
0.0
  0
LINE
  8
WIRING
  6
CONTINUOUS
 62
     7
  5
2B5
 10
2.550001
 20
-0.8
 30
0.0
 11
2.300001
 21
-0.8
 31
0.0
  0
LINE
  8
WIRING
  6
CONTINUOUS
 62
     7
  5
2B6
 10
2.300001
 20
-0.8
 30
0.0
 11
2.300001
 21
-0.95
 31
0.0
  0
LINE
  8
WIRING
  6
CONTINUOUS
 62
     7
  5
2B7
 10
2.300001
 20
-1.1
 30
0.0
 11
2.200001
 21
-0.95
 31
0.0
  0
LINE
  8
WIRING
  6
CONTINUOUS
 62
     7
  5
2B8
 10
2.550001
 20
-1.3
 30
0.0
 11
2.550001
 21
-1.7
 31
0.0
  0
LINE
  8
WIRING
  6
CONTINUOUS
 62
     7
  5
2B9
 10
2.550001
 20
-1.7
 30
0.0
 11
2.300001
 21
-1.7
 31
0.0
  0
LINE
  8
WIRING
  6
CONTINUOUS
 62
     7
  5
2BA
 10
2.300001
 20
-0.8
 30
0.0
 11
2.100001
 21
-0.8
 31
0.0
  0
LINE
  8
WIRING
  6
CONTINUOUS
 62
     7
  5
2BB
 10
2.144998
 20
-0.8
 30
0.0
 11
2.0
 21
-0.8
 31
0.0
  0
LINE
  8
WIRING
  6
CONTINUOUS
 62
     7
  5
2BC
 10
2.000002
 20
-0.8
 30
0.0
 11
2.000002
 21
-1.099999
 31
0.0
  0
LINE
  8
WIRING
  6
CONTINUOUS
 62
     7
  5
2BD
 10
2.0
 20
-0.8
 30
0.0
 11
1.850001
 21
-0.8
 31
0.0
  0
LINE
  8
WIRING
  6
CONTINUOUS
 62
     7
  5
2BE
 10
2.0
 20
-1.7
 30
0.0
 11
2.300001
 21
-1.7
 31
0.0
  0
LINE
  8
WIRING
  6
CONTINUOUS
 62
     7
  5
2BF
 10
2.550001
 20
-1.7
 30
0.0
 11
2.550001
 21
-1.8
 31
0.0
  0
LINE
  8
WIRING
  6
CONTINUOUS
 62
     7
  5
2C0
 10
2.550001
 20
-1.8
 30
0.0
 11
2.5
 21
-1.8
 31
0.0
  0
LINE
  8
WIRING
  6
CONTINUOUS
 62
     7
  5
2C1
 10
2.5
 20
-1.8
 30
0.0
 11
2.550001
 21
-1.9
 31
0.0
  0
LINE
  8
WIRING
  6
CONTINUOUS
 62
     7
  5
2C2
 10
2.550001
 20
-1.9
 30
0.0
 11
2.600001
 21
-1.8
 31
0.0
  0
LINE
  8
WIRING
  6
CONTINUOUS
 62
     7
  5
2C3
 10
2.600001
 20
-1.8
 30
0.0
 11
2.550001
 21
-1.8
 31
0.0
  0
LINE
  8
COMPON
  6
CONTINUOUS
 62
     7
  5
2C4
 10
2.300001
 20
-1.199999
 30
0.0
 11
2.350001
 21
-1.225
 31
0.0
  0
LINE
  8
COMPON
  6
CONTINUOUS
 62
     7
  5
2C5
 10
2.350001
 20
-1.225
 30
0.0
 11
2.25
 21
-1.275
 31
0.0
  0
LINE
  8
COMPON
  6
CONTINUOUS
 62
     7
  5
2C6
 10
2.25
 20
-1.275
 30
0.0
 11
2.350001
 21
-1.324999
 31
0.0
  0
LINE
  8
COMPON
  6
CONTINUOUS
 62
     7
  5
2C7
 10
2.350001
 20
-1.324999
 30
0.0
 11
2.25
 21
-1.374998
 31
0.0
  0
LINE
  8
COMPON
  6
CONTINUOUS
 62
     7
  5
2C8
 10
2.25
 20
-1.374998
 30
0.0
 11
2.350001
 21
-1.425001
 31
0.0
  0
LINE
  8
COMPON
  6
CONTINUOUS
 62
     7
  5
2C9
 10
2.350001
 20
-1.425001
 30
0.0
 11
2.25
 21
-1.475
 31
0.0
  0
LINE
  8
COMPON
  6
CONTINUOUS
 62
     7
  5
2CA
 10
2.25
 20
-1.475
 30
0.0
 11
2.300001
 21
-1.499998
 31
0.0
  0
LINE
  8
WIRING
  6
CONTINUOUS
 62
     7
  5
2CB
 10
2.300001
 20
-1.2
 30
0.0
 11
2.300001
 21
-1.1
 31
0.0
  0
LINE
  8
WIRING
  6
CONTINUOUS
 62
     7
  5
2CC
 10
2.300001
 20
-1.5
 30
0.0
 11
2.300001
 21
-1.7
 31
0.0
  0
INSERT
  8
COMPON
  6
TYPE___1
 62
     7
  5
2CD
  2
XCON-DOT
 10
2.300002
 20
-0.95
 30
0.0
 50
90.0
  0
INSERT
  8
COMPON
  6
TYPE___1
 62
     7
  5
2CE
  2
XCON-DOT
 10
2.300002
 20
-0.95
 30
0.0
 50
90.0
  0
INSERT
  8
COMPON
  6
TYPE___1
 62
     7
  5
2CF
  2
XCON-DOT
 10
2.300002
 20
-0.95
 30
0.0
 50
90.0
  0
INSERT
  8
COMPON
  6
TYPE___1
 62
     7
  5
2D0
  2
XCON-DOT
 10
2.300002
 20
-1.1
 30
0.0
 50
90.0
  0
INSERT
  8
COMPON
  6
TYPE___1
 62
     7
  5
2D1
  2
XCON-DOT
 10
2.300002
 20
-1.1
 30
0.0
 50
90.0
  0
INSERT
  8
COMPON
  6
TYPE___1
 62
     7
  5
2D2
  2
XCON-DOT
 10
2.300002
 20
-1.1
 30
0.0
 50
90.0
  0
LINE
  8
COMPON
  6
CONTINUOUS
 62
     7
  5
2D3
 10
3.789994
 20
-1.450001
 30
0.0
 11
3.839994
 21
-1.450001
 31
0.0
  0
LINE
  8
COMPON
  6
CONTINUOUS
 62
     7
  5
2D4
 10
3.789994
 20
-1.650001
 30
0.0
 11
3.839994
 21
-1.650001
 31
0.0
  0
LINE
  8
COMPON
  6
CONTINUOUS
 62
     7
  5
2D5
 10
3.839994
 20
-1.8
 30
0.0
 11
3.839994
 21
-1.3
 31
0.0
  0
LINE
  8
COMPON
  6
CONTINUOUS
 62
     7
  5
2D6
 10
3.839994
 20
-1.3
 30
0.0
 11
4.339993
 21
-1.55
 31
0.0
  0
LINE
  8
COMPON
  6
CONTINUOUS
 62
     7
  5
2D7
 10
4.339993
 20
-1.55
 30
0.0
 11
3.839994
 21
-1.8
 31
0.0
  0
LINE
  8
COMPON
  6
CONTINUOUS
 62
     7
  5
2D8
 10
3.864995
 20
-1.650001
 30
0.0
 11
3.914994
 21
-1.650001
 31
0.0
  0
LINE
  8
COMPON
  6
CONTINUOUS
 62
     7
  5
2D9
 10
3.889997
 20
-1.625001
 30
0.0
 11
3.889997
 21
-1.675
 31
0.0
  0
LINE
  8
COMPON
  6
CONTINUOUS
 62
     7
  5
2DA
 10
3.864995
 20
-1.450001
 30
0.0
 11
3.914994
 21
-1.450001
 31
0.0
  0
LINE
  8
WIRING
  6
CONTINUOUS
 62
     7
  5
2DB
 10
3.939996
 20
-1.150001
 30
0.0
 11
4.489995
 21
-1.150001
 31
0.0
  0
LINE
  8
WIRING
  6
CONTINUOUS
 62
     7
  5
2DC
 10
4.489995
 20
-1.550001
 30
0.0
 11
4.339993
 21
-1.550001
 31
0.0
  0
LINE
  8
COMPON
  6
CONTINUOUS
 62
     7
  5
2DD
 10
4.089993
 20
-1.400001
 30
0.0
 11
4.089993
 21
-1.35
 31
0.0
  0
TEXT
  8
COMPON
  6
CONTINUOUS
 62
     7
  5
2DE
 10
4.089993
 20
-1.300001
 30
0.0
 40
0.05
  1
+5
  7
VC-TEXTSTYLE0
  0
LINE
  8
COMPON
  6
CONTINUOUS
 62
     7
  5
2DF
 10
4.089993
 20
-1.700001
 30
0.0
 11
4.089993
 21
-1.800001
 31
0.0
  0
LINE
  8
COMPON
  6
CONTINUOUS
 62
     7
  5
2E0
 10
4.089993
 20
-1.800001
 30
0.0
 11
4.139997
 21
-1.800001
 31
0.0
  0
LINE
  8
COMPON
  6
CONTINUOUS
 62
     7
  5
2E1
 10
4.139997
 20
-1.800001
 30
0.0
 11
4.089993
 21
-1.900001
 31
0.0
  0
LINE
  8
COMPON
  6
CONTINUOUS
 62
     7
  5
2E2
 10
4.089993
 20
-1.900001
 30
0.0
 11
4.039994
 21
-1.800001
 31
0.0
  0
LINE
  8
COMPON
  6
CONTINUOUS
 62
     7
  5
2E3
 10
4.039994
 20
-1.800001
 30
0.0
 11
4.089993
 21
-1.800001
 31
0.0
  0
LINE
  8
WIRING
  6
CONTINUOUS
 62
     7
  5
2E4
 10
4.494997
 20
-1.150001
 30
0.0
 11
4.494997
 21
-1.550001
 31
0.0
  0
LINE
  8
WIRING
  6
CONTINUOUS
 62
     7
  5
2E5
 10
4.444998
 20
-1.150002
 30
0.0
 11
4.494997
 21
-1.150002
 31
0.0
  0
LINE
  8
WIRING
  6
CONTINUOUS
 62
     7
  5
2E6
 10
3.844998
 20
-1.65
 30
0.0
 11
3.644998
 21
-1.65
 31
0.0
  0
LINE
  8
WIRING
  6
CONTINUOUS
 62
     7
  5
2E7
 10
3.789994
 20
-1.450001
 30
0.0
 11
3.65
 21
-1.450001
 31
0.0
  0
LINE
  8
WIRING
  6
CONTINUOUS
 62
     7
  5
2E8
 10
3.65
 20
-1.450001
 30
0.0
 11
3.65
 21
-1.15
 31
0.0
  0
LINE
  8
WIRING
  6
CONTINUOUS
 62
     7
  5
2E9
 10
3.65
 20
-1.15
 30
0.0
 11
3.939996
 21
-1.15
 31
0.0
  0
LINE
  8
WIRING
  6
CONTINUOUS
 62
     7
  5
2EA
 10
3.65
 20
-1.65
 30
0.0
 11
3.65
 21
-1.8
 31
0.0
  0
LINE
  8
WIRING
  6
CONTINUOUS
 62
     7
  5
2EB
 10
3.65
 20
-1.8
 30
0.0
 11
3.6
 21
-1.8
 31
0.0
  0
LINE
  8
WIRING
  6
CONTINUOUS
 62
     7
  5
2EC
 10
3.6
 20
-1.8
 30
0.0
 11
3.65
 21
-1.9
 31
0.0
  0
LINE
  8
WIRING
  6
CONTINUOUS
 62
     7
  5
2ED
 10
3.65
 20
-1.9
 30
0.0
 11
3.7
 21
-1.8
 31
0.0
  0
LINE
  8
WIRING
  6
CONTINUOUS
 62
     7
  5
2EE
 10
3.7
 20
-1.8
 30
0.0
 11
3.65
 21
-1.8
 31
0.0
  0
LINE
  8
COMPON
  6
CONTINUOUS
 62
     7
  5
2EF
 10
6.15
 20
8.5375
 30
0.0
 11
6.15
 21
8.5
 31
0.0
  0
LINE
  8
COMPON
  6
CONTINUOUS
 62
     7
  5
2F0
 10
6.15
 20
8.5
 30
0.0
 11
6.15
 21
8.5375
 31
0.0
  0
LINE
  8
COMPON
  6
CONTINUOUS
 62
     7
  5
2F1
 10
6.15
 20
8.525
 30
0.0
 11
6.175002
 21
8.575001
 31
0.0
  0
LINE
  8
COMPON
  6
CONTINUOUS
 62
     7
  5
2F2
 10
6.175002
 20
8.575001
 30
0.0
 11
6.125002
 21
8.575001
 31
0.0
  0
LINE
  8
COMPON
  6
CONTINUOUS
 62
     7
  5
2F3
 10
6.125002
 20
8.575001
 30
0.0
 11
6.15
 21
8.525
 31
0.0
  0
LINE
  8
COMPON
  6
CONTINUOUS
 62
     7
  5
2F4
 10
6.175002
 20
8.525
 30
0.0
 11
6.125002
 21
8.525
 31
0.0
  0
LINE
  8
COMPON
  6
CONTINUOUS
 62
     7
  5
2F5
 10
6.15
 20
8.575001
 30
0.0
 11
6.15
 21
8.6
 31
0.0
  0
LINE
  8
COMPON
  6
CONTINUOUS
 62
     7
  5
2F6
 10
6.15
 20
8.6
 30
0.0
 11
6.100001
 21
8.6
 31
0.0
  0
LINE
  8
COMPON
  6
CONTINUOUS
 62
     7
  5
2F7
 10
6.449999
 20
8.6
 30
0.0
 11
6.449999
 21
8.549999
 31
0.0
  0
LINE
  8
COMPON
  6
CONTINUOUS
 62
     7
  5
2F8
 10
6.449999
 20
8.549999
 30
0.0
 11
6.449999
 21
8.549999
 31
0.0
  0
LINE
  8
COMPON
  6
CONTINUOUS
 62
     7
  5
2F9
 10
6.449999
 20
8.549999
 30
0.0
 11
6.449999
 21
8.525
 31
0.0
  0
LINE
  8
COMPON
  6
CONTINUOUS
 62
     7
  5
2FA
 10
6.449999
 20
8.525
 30
0.0
 11
6.449999
 21
8.575001
 31
0.0
  0
LINE
  8
COMPON
  6
CONTINUOUS
 62
     7
  5
2FB
 10
6.449999
 20
8.575001
 30
0.0
 11
6.475001
 21
8.6
 31
0.0
  0
LINE
  8
COMPON
  6
CONTINUOUS
 62
     7
  5
2FC
 10
6.449999
 20
8.549999
 30
0.0
 11
6.475001
 21
8.525
 31
0.0
  0
LINE
  8
COMPON
  6
CONTINUOUS
 62
     7
  5
2FD
 10
6.454291
 20
8.536873
 30
0.0
 11
6.46313
 21
8.545712
 31
0.0
  0
LINE
  8
COMPON
  6
CONTINUOUS
 62
     7
  5
2FE
 10
6.46313
 20
8.545712
 30
0.0
 11
6.471968
 21
8.528034
 31
0.0
  0
LINE
  8
COMPON
  6
CONTINUOUS
 62
     7
  5
2FF
 10
6.471968
 20
8.528034
 30
0.0
 11
6.454291
 21
8.536873
 31
0.0
  0
LINE
  8
COMPON
  6
CONTINUOUS
 62
     7
  5
300
 10
6.450003
 20
8.5625
 30
0.0
 11
6.450003
 21
8.5625
 31
0.0
  0
LINE
  8
COMPON
  6
CONTINUOUS
 62
     7
  5
301
 10
6.475001
 20
8.6
 30
0.0
 11
6.525
 21
8.6
 31
0.0
  0
LINE
  8
COMPON
  6
CONTINUOUS
 62
     7
  5
302
 10
6.475001
 20
8.549999
 30
0.0
 11
6.475001
 21
8.575001
 31
0.0
  0
LINE
  8
COMPON
  6
CONTINUOUS
 62
     7
  5
303
 10
6.475001
 20
8.575001
 30
0.0
 11
6.475001
 21
8.5
 31
0.0
  0
LINE
  8
COMPON
  6
CONTINUOUS
 62
     7
  5
304
 10
6.475001
 20
8.525
 30
0.0
 11
6.500002
 21
8.5
 31
0.0
  0
LINE
  8
COMPON
  6
CONTINUOUS
 62
     7
  5
305
 10
6.475001
 20
8.549999
 30
0.0
 11
6.500002
 21
8.575001
 31
0.0
  0
LINE
  8
COMPON
  6
CONTINUOUS
 62
     7
  5
306
 10
6.475131
 20
8.52487
 30
0.0
 11
6.475131
 21
8.52487
 31
0.0
  0
LINE
  8
COMPON
  6
CONTINUOUS
 62
     7
  5
307
 10
6.475131
 20
8.52487
 30
0.0
 11
6.475131
 21
8.49987
 31
0.0
  0
LINE
  8
COMPON
  6
CONTINUOUS
 62
     7
  5
308
 10
6.475131
 20
8.52487
 30
0.0
 11
6.500132
 21
8.49987
 31
0.0
  0
LINE
  8
COMPON
  6
CONTINUOUS
 62
     7
  5
309
 10
6.479422
 20
8.511742
 30
0.0
 11
6.488261
 21
8.52058
 31
0.0
  0
LINE
  8
COMPON
  6
CONTINUOUS
 62
     7
  5
30A
 10
6.488261
 20
8.52058
 30
0.0
 11
6.497099
 21
8.502903
 31
0.0
  0
LINE
  8
COMPON
  6
CONTINUOUS
 62
     7
  5
30B
 10
6.497099
 20
8.502903
 30
0.0
 11
6.479422
 21
8.511742
 31
0.0
  0
LINE
  8
COMPON
  6
CONTINUOUS
 62
     7
  5
30C
 10
6.500002
 20
8.575001
 30
0.0
 11
6.500002
 21
8.6
 31
0.0
  0
LINE
  8
COMPON
  6
CONTINUOUS
 62
     7
  5
30D
 10
6.500002
 20
8.5
 30
0.0
 11
6.525
 21
8.5
 31
0.0
  0
LINE
  8
COMPON
  6
CONTINUOUS
 62
     7
  5
30E
 10
6.300002
 20
8.5875
 30
0.0
 11
6.300002
 21
8.5875
 31
0.0
  0
LINE
  8
COMPON
  6
CONTINUOUS
 62
     7
  5
30F
 10
6.300002
 20
8.5875
 30
0.0
 11
6.325003
 21
8.5625
 31
0.0
  0
LINE
  8
COMPON
  6
CONTINUOUS
 62
     7
  5
310
 10
6.304289
 20
8.574371
 30
0.0
 11
6.313128
 21
8.58321
 31
0.0
  0
LINE
  8
COMPON
  6
CONTINUOUS
 62
     7
  5
311
 10
6.313128
 20
8.58321
 30
0.0
 11
6.321967
 21
8.565533
 31
0.0
  0
LINE
  8
COMPON
  6
CONTINUOUS
 62
     7
  5
312
 10
6.321967
 20
8.565533
 30
0.0
 11
6.304289
 21
8.574371
 31
0.0
  0
LINE
  8
COMPON
  6
CONTINUOUS
 62
     7
  5
313
 10
6.300002
 20
8.5875
 30
0.0
 11
6.287501
 21
8.6
 31
0.0
  0
LINE
  8
COMPON
  6
CONTINUOUS
 62
     7
  5
314
 10
6.300002
 20
8.549999
 30
0.0
 11
6.300002
 21
8.549999
 31
0.0
  0
LINE
  8
COMPON
  6
CONTINUOUS
 62
     7
  5
315
 10
6.300002
 20
8.549999
 30
0.0
 11
6.325003
 21
8.525
 31
0.0
  0
LINE
  8
COMPON
  6
CONTINUOUS
 62
     7
  5
316
 10
6.304289
 20
8.536873
 30
0.0
 11
6.313128
 21
8.545712
 31
0.0
  0
LINE
  8
COMPON
  6
CONTINUOUS
 62
     7
  5
317
 10
6.313128
 20
8.545712
 30
0.0
 11
6.321967
 21
8.528034
 31
0.0
  0
LINE
  8
COMPON
  6
CONTINUOUS
 62
     7
  5
318
 10
6.321967
 20
8.528034
 30
0.0
 11
6.304289
 21
8.536873
 31
0.0
  0
LINE
  8
COMPON
  6
CONTINUOUS
 62
     7
  5
319
 10
6.300002
 20
8.549999
 30
0.0
 11
6.287501
 21
8.5625
 31
0.0
  0
LINE
  8
COMPON
  6
CONTINUOUS
 62
     7
  5
31A
 10
6.500002
 20
8.6
 30
0.0
 11
6.550002
 21
8.6
 31
0.0
  0
LINE
  8
COMPON
  6
CONTINUOUS
 62
     7
  5
31B
 10
6.500002
 20
8.5
 30
0.0
 11
6.550002
 21
8.5
 31
0.0
  0
LINE
  8
COMPON
  6
CONTINUOUS
 62
     7
  5
31C
 10
6.15
 20
8.5
 30
0.0
 11
6.100001
 21
8.5
 31
0.0
  0
LINE
  8
COMPON
  6
CONTINUOUS
 62
     7
  5
31D
 10
6.100001
 20
8.6
 30
0.0
 11
6.050002
 21
8.6
 31
0.0
  0
LINE
  8
COMPON
  6
CONTINUOUS
 62
     7
  5
31E
 10
6.100001
 20
8.5
 30
0.0
 11
6.050002
 21
8.5
 31
0.0
  0
LINE
  8
COMPON
  6
CONTINUOUS
 62
     7
  5
31F
 10
6.050002
 20
8.6
 30
0.0
 11
5.950003
 21
8.6
 31
0.0
  0
LINE
  8
COMPON
  6
CONTINUOUS
 62
     7
  5
320
 10
6.050002
 20
8.5
 30
0.0
 11
5.950003
 21
8.5
 31
0.0
  0
LINE
  8
COMPON
  6
CONTINUOUS
 62
     7
  5
321
 10
6.550002
 20
8.6
 30
0.0
 11
6.65
 21
8.6
 31
0.0
  0
LINE
  8
COMPON
  6
CONTINUOUS
 62
     7
  5
322
 10
6.550002
 20
8.5
 30
0.0
 11
6.65
 21
8.5
 31
0.0
  0
LINE
  8
COMPON
  6
CONTINUOUS
 62
     7
  5
323
 10
6.050002
 20
8.700001
 30
0.0
 11
6.550002
 21
8.700001
 31
0.0
  0
LINE
  8
COMPON
  6
CONTINUOUS
 62
     7
  5
324
 10
6.15
 20
8.3375
 30
0.0
 11
6.15
 21
8.299999
 31
0.0
  0
LINE
  8
COMPON
  6
CONTINUOUS
 62
     7
  5
325
 10
6.15
 20
8.299999
 30
0.0
 11
6.15
 21
8.3375
 31
0.0
  0
LINE
  8
COMPON
  6
CONTINUOUS
 62
     7
  5
326
 10
6.15
 20
8.325001
 30
0.0
 11
6.175002
 21
8.375
 31
0.0
  0
LINE
  8
COMPON
  6
CONTINUOUS
 62
     7
  5
327
 10
6.175002
 20
8.375
 30
0.0
 11
6.125002
 21
8.375
 31
0.0
  0
LINE
  8
COMPON
  6
CONTINUOUS
 62
     7
  5
328
 10
6.125002
 20
8.375
 30
0.0
 11
6.15
 21
8.325001
 31
0.0
  0
LINE
  8
COMPON
  6
CONTINUOUS
 62
     7
  5
329
 10
6.175002
 20
8.325001
 30
0.0
 11
6.125002
 21
8.325001
 31
0.0
  0
LINE
  8
COMPON
  6
CONTINUOUS
 62
     7
  5
32A
 10
6.15
 20
8.375
 30
0.0
 11
6.15
 21
8.4
 31
0.0
  0
LINE
  8
COMPON
  6
CONTINUOUS
 62
     7
  5
32B
 10
6.15
 20
8.4
 30
0.0
 11
6.100001
 21
8.4
 31
0.0
  0
LINE
  8
COMPON
  6
CONTINUOUS
 62
     7
  5
32C
 10
6.449999
 20
8.4
 30
0.0
 11
6.449999
 21
8.35
 31
0.0
  0
LINE
  8
COMPON
  6
CONTINUOUS
 62
     7
  5
32D
 10
6.449999
 20
8.35
 30
0.0
 11
6.449999
 21
8.35
 31
0.0
  0
LINE
  8
COMPON
  6
CONTINUOUS
 62
     7
  5
32E
 10
6.449999
 20
8.35
 30
0.0
 11
6.449999
 21
8.325001
 31
0.0
  0
LINE
  8
COMPON
  6
CONTINUOUS
 62
     7
  5
32F
 10
6.449999
 20
8.325001
 30
0.0
 11
6.449999
 21
8.375
 31
0.0
  0
LINE
  8
COMPON
  6
CONTINUOUS
 62
     7
  5
330
 10
6.449999
 20
8.375
 30
0.0
 11
6.475001
 21
8.4
 31
0.0
  0
LINE
  8
COMPON
  6
CONTINUOUS
 62
     7
  5
331
 10
6.449999
 20
8.35
 30
0.0
 11
6.475001
 21
8.325001
 31
0.0
  0
LINE
  8
COMPON
  6
CONTINUOUS
 62
     7
  5
332
 10
6.454291
 20
8.336872
 30
0.0
 11
6.46313
 21
8.345711
 31
0.0
  0
LINE
  8
COMPON
  6
CONTINUOUS
 62
     7
  5
333
 10
6.46313
 20
8.345711
 30
0.0
 11
6.471968
 21
8.328033
 31
0.0
  0
LINE
  8
COMPON
  6
CONTINUOUS
 62
     7
  5
334
 10
6.471968
 20
8.328033
 30
0.0
 11
6.454291
 21
8.336872
 31
0.0
  0
LINE
  8
COMPON
  6
CONTINUOUS
 62
     7
  5
335
 10
6.450003
 20
8.362499
 30
0.0
 11
6.450003
 21
8.362499
 31
0.0
  0
LINE
  8
COMPON
  6
CONTINUOUS
 62
     7
  5
336
 10
6.475001
 20
8.4
 30
0.0
 11
6.525
 21
8.4
 31
0.0
  0
LINE
  8
COMPON
  6
CONTINUOUS
 62
     7
  5
337
 10
6.475001
 20
8.35
 30
0.0
 11
6.475001
 21
8.375
 31
0.0
  0
LINE
  8
COMPON
  6
CONTINUOUS
 62
     7
  5
338
 10
6.475001
 20
8.375
 30
0.0
 11
6.475001
 21
8.299999
 31
0.0
  0
LINE
  8
COMPON
  6
CONTINUOUS
 62
     7
  5
339
 10
6.475001
 20
8.325001
 30
0.0
 11
6.500002
 21
8.299999
 31
0.0
  0
LINE
  8
COMPON
  6
CONTINUOUS
 62
     7
  5
33A
 10
6.475001
 20
8.35
 30
0.0
 11
6.500002
 21
8.375
 31
0.0
  0
LINE
  8
COMPON
  6
CONTINUOUS
 62
     7
  5
33B
 10
6.475131
 20
8.324871
 30
0.0
 11
6.475131
 21
8.324871
 31
0.0
  0
LINE
  8
COMPON
  6
CONTINUOUS
 62
     7
  5
33C
 10
6.475131
 20
8.324871
 30
0.0
 11
6.475131
 21
8.29987
 31
0.0
  0
LINE
  8
COMPON
  6
CONTINUOUS
 62
     7
  5
33D
 10
6.475131
 20
8.324871
 30
0.0
 11
6.500132
 21
8.29987
 31
0.0
  0
LINE
  8
COMPON
  6
CONTINUOUS
 62
     7
  5
33E
 10
6.479422
 20
8.311741
 30
0.0
 11
6.488261
 21
8.32058
 31
0.0
  0
LINE
  8
COMPON
  6
CONTINUOUS
 62
     7
  5
33F
 10
6.488261
 20
8.32058
 30
0.0
 11
6.497099
 21
8.302902
 31
0.0
  0
LINE
  8
COMPON
  6
CONTINUOUS
 62
     7
  5
340
 10
6.497099
 20
8.302902
 30
0.0
 11
6.479422
 21
8.311741
 31
0.0
  0
LINE
  8
COMPON
  6
CONTINUOUS
 62
     7
  5
341
 10
6.500002
 20
8.375
 30
0.0
 11
6.500002
 21
8.4
 31
0.0
  0
LINE
  8
COMPON
  6
CONTINUOUS
 62
     7
  5
342
 10
6.500002
 20
8.299999
 30
0.0
 11
6.525
 21
8.299999
 31
0.0
  0
LINE
  8
COMPON
  6
CONTINUOUS
 62
     7
  5
343
 10
6.300002
 20
8.387501
 30
0.0
 11
6.300002
 21
8.387501
 31
0.0
  0
LINE
  8
COMPON
  6
CONTINUOUS
 62
     7
  5
344
 10
6.300002
 20
8.387501
 30
0.0
 11
6.325003
 21
8.362499
 31
0.0
  0
LINE
  8
COMPON
  6
CONTINUOUS
 62
     7
  5
345
 10
6.304289
 20
8.374372
 30
0.0
 11
6.313128
 21
8.383211
 31
0.0
  0
LINE
  8
COMPON
  6
CONTINUOUS
 62
     7
  5
346
 10
6.313128
 20
8.383211
 30
0.0
 11
6.321967
 21
8.365532
 31
0.0
  0
LINE
  8
COMPON
  6
CONTINUOUS
 62
     7
  5
347
 10
6.321967
 20
8.365532
 30
0.0
 11
6.304289
 21
8.374372
 31
0.0
  0
LINE
  8
COMPON
  6
CONTINUOUS
 62
     7
  5
348
 10
6.300002
 20
8.387501
 30
0.0
 11
6.287501
 21
8.4
 31
0.0
  0
LINE
  8
COMPON
  6
CONTINUOUS
 62
     7
  5
349
 10
6.300002
 20
8.35
 30
0.0
 11
6.300002
 21
8.35
 31
0.0
  0
LINE
  8
COMPON
  6
CONTINUOUS
 62
     7
  5
34A
 10
6.300002
 20
8.35
 30
0.0
 11
6.325003
 21
8.325001
 31
0.0
  0
LINE
  8
COMPON
  6
CONTINUOUS
 62
     7
  5
34B
 10
6.304289
 20
8.336872
 30
0.0
 11
6.313128
 21
8.345711
 31
0.0
  0
LINE
  8
COMPON
  6
CONTINUOUS
 62
     7
  5
34C
 10
6.313128
 20
8.345711
 30
0.0
 11
6.321967
 21
8.328033
 31
0.0
  0
LINE
  8
COMPON
  6
CONTINUOUS
 62
     7
  5
34D
 10
6.321967
 20
8.328033
 30
0.0
 11
6.304289
 21
8.336872
 31
0.0
  0
LINE
  8
COMPON
  6
CONTINUOUS
 62
     7
  5
34E
 10
6.300002
 20
8.35
 30
0.0
 11
6.287501
 21
8.362499
 31
0.0
  0
LINE
  8
COMPON
  6
CONTINUOUS
 62
     7
  5
34F
 10
6.500002
 20
8.4
 30
0.0
 11
6.550002
 21
8.4
 31
0.0
  0
LINE
  8
COMPON
  6
CONTINUOUS
 62
     7
  5
350
 10
6.500002
 20
8.299999
 30
0.0
 11
6.550002
 21
8.299999
 31
0.0
  0
LINE
  8
COMPON
  6
CONTINUOUS
 62
     7
  5
351
 10
6.15
 20
8.299999
 30
0.0
 11
6.100001
 21
8.300001
 31
0.0
  0
LINE
  8
COMPON
  6
CONTINUOUS
 62
     7
  5
352
 10
6.100001
 20
8.4
 30
0.0
 11
6.050002
 21
8.4
 31
0.0
  0
LINE
  8
COMPON
  6
CONTINUOUS
 62
     7
  5
353
 10
6.100001
 20
8.299999
 30
0.0
 11
6.050002
 21
8.299999
 31
0.0
  0
LINE
  8
COMPON
  6
CONTINUOUS
 62
     7
  5
354
 10
6.050002
 20
8.4
 30
0.0
 11
5.950003
 21
8.4
 31
0.0
  0
LINE
  8
COMPON
  6
CONTINUOUS
 62
     7
  5
355
 10
6.050002
 20
8.299999
 30
0.0
 11
5.950003
 21
8.299999
 31
0.0
  0
LINE
  8
COMPON
  6
CONTINUOUS
 62
     7
  5
356
 10
6.550002
 20
8.4
 30
0.0
 11
6.65
 21
8.4
 31
0.0
  0
LINE
  8
COMPON
  6
CONTINUOUS
 62
     7
  5
357
 10
6.550002
 20
8.299999
 30
0.0
 11
6.65
 21
8.299999
 31
0.0
  0
LINE
  8
COMPON
  6
CONTINUOUS
 62
     7
  5
358
 10
6.15
 20
8.137501
 30
0.0
 11
6.15
 21
8.1
 31
0.0
  0
LINE
  8
COMPON
  6
CONTINUOUS
 62
     7
  5
359
 10
6.15
 20
8.1
 30
0.0
 11
6.15
 21
8.137501
 31
0.0
  0
LINE
  8
COMPON
  6
CONTINUOUS
 62
     7
  5
35A
 10
6.15
 20
8.125
 30
0.0
 11
6.175002
 21
8.174999
 31
0.0
  0
LINE
  8
COMPON
  6
CONTINUOUS
 62
     7
  5
35B
 10
6.175002
 20
8.174999
 30
0.0
 11
6.125002
 21
8.174999
 31
0.0
  0
LINE
  8
COMPON
  6
CONTINUOUS
 62
     7
  5
35C
 10
6.125002
 20
8.174999
 30
0.0
 11
6.15
 21
8.125
 31
0.0
  0
LINE
  8
COMPON
  6
CONTINUOUS
 62
     7
  5
35D
 10
6.175002
 20
8.125
 30
0.0
 11
6.125002
 21
8.125
 31
0.0
  0
LINE
  8
COMPON
  6
CONTINUOUS
 62
     7
  5
35E
 10
6.15
 20
8.174999
 30
0.0
 11
6.15
 21
8.200001
 31
0.0
  0
LINE
  8
COMPON
  6
CONTINUOUS
 62
     7
  5
35F
 10
6.15
 20
8.200001
 30
0.0
 11
6.100001
 21
8.200001
 31
0.0
  0
LINE
  8
COMPON
  6
CONTINUOUS
 62
     7
  5
360
 10
6.449999
 20
8.200001
 30
0.0
 11
6.449999
 21
8.15
 31
0.0
  0
LINE
  8
COMPON
  6
CONTINUOUS
 62
     7
  5
361
 10
6.449999
 20
8.15
 30
0.0
 11
6.449999
 21
8.15
 31
0.0
  0
LINE
  8
COMPON
  6
CONTINUOUS
 62
     7
  5
362
 10
6.449999
 20
8.15
 30
0.0
 11
6.449999
 21
8.125
 31
0.0
  0
LINE
  8
COMPON
  6
CONTINUOUS
 62
     7
  5
363
 10
6.449999
 20
8.125
 30
0.0
 11
6.449999
 21
8.174999
 31
0.0
  0
LINE
  8
COMPON
  6
CONTINUOUS
 62
     7
  5
364
 10
6.449999
 20
8.174999
 30
0.0
 11
6.475001
 21
8.200001
 31
0.0
  0
LINE
  8
COMPON
  6
CONTINUOUS
 62
     7
  5
365
 10
6.449999
 20
8.15
 30
0.0
 11
6.475001
 21
8.125
 31
0.0
  0
LINE
  8
COMPON
  6
CONTINUOUS
 62
     7
  5
366
 10
6.454291
 20
8.136871
 30
0.0
 11
6.46313
 21
8.14571
 31
0.0
  0
LINE
  8
COMPON
  6
CONTINUOUS
 62
     7
  5
367
 10
6.46313
 20
8.14571
 30
0.0
 11
6.471968
 21
8.128033
 31
0.0
  0
LINE
  8
COMPON
  6
CONTINUOUS
 62
     7
  5
368
 10
6.471968
 20
8.128033
 30
0.0
 11
6.454291
 21
8.136871
 31
0.0
  0
LINE
  8
COMPON
  6
CONTINUOUS
 62
     7
  5
369
 10
6.450003
 20
8.1625
 30
0.0
 11
6.450003
 21
8.1625
 31
0.0
  0
LINE
  8
COMPON
  6
CONTINUOUS
 62
     7
  5
36A
 10
6.475001
 20
8.200001
 30
0.0
 11
6.525
 21
8.200001
 31
0.0
  0
LINE
  8
COMPON
  6
CONTINUOUS
 62
     7
  5
36B
 10
6.475001
 20
8.15
 30
0.0
 11
6.475001
 21
8.174999
 31
0.0
  0
LINE
  8
COMPON
  6
CONTINUOUS
 62
     7
  5
36C
 10
6.475001
 20
8.174999
 30
0.0
 11
6.475001
 21
8.1
 31
0.0
  0
LINE
  8
COMPON
  6
CONTINUOUS
 62
     7
  5
36D
 10
6.475001
 20
8.125
 30
0.0
 11
6.500002
 21
8.1
 31
0.0
  0
LINE
  8
COMPON
  6
CONTINUOUS
 62
     7
  5
36E
 10
6.475001
 20
8.15
 30
0.0
 11
6.500002
 21
8.174999
 31
0.0
  0
LINE
  8
COMPON
  6
CONTINUOUS
 62
     7
  5
36F
 10
6.475131
 20
8.12487
 30
0.0
 11
6.475131
 21
8.12487
 31
0.0
  0
LINE
  8
COMPON
  6
CONTINUOUS
 62
     7
  5
370
 10
6.475131
 20
8.12487
 30
0.0
 11
6.475131
 21
8.099869
 31
0.0
  0
LINE
  8
COMPON
  6
CONTINUOUS
 62
     7
  5
371
 10
6.475131
 20
8.12487
 30
0.0
 11
6.500132
 21
8.099869
 31
0.0
  0
LINE
  8
COMPON
  6
CONTINUOUS
 62
     7
  5
372
 10
6.479422
 20
8.111742
 30
0.0
 11
6.488261
 21
8.120581
 31
0.0
  0
LINE
  8
COMPON
  6
CONTINUOUS
 62
     7
  5
373
 10
6.488261
 20
8.120581
 30
0.0
 11
6.497099
 21
8.102903
 31
0.0
  0
LINE
  8
COMPON
  6
CONTINUOUS
 62
     7
  5
374
 10
6.497099
 20
8.102903
 30
0.0
 11
6.479422
 21
8.111742
 31
0.0
  0
LINE
  8
COMPON
  6
CONTINUOUS
 62
     7
  5
375
 10
6.500002
 20
8.174999
 30
0.0
 11
6.500002
 21
8.200001
 31
0.0
  0
LINE
  8
COMPON
  6
CONTINUOUS
 62
     7
  5
376
 10
6.500002
 20
8.1
 30
0.0
 11
6.525
 21
8.1
 31
0.0
  0
LINE
  8
COMPON
  6
CONTINUOUS
 62
     7
  5
377
 10
6.300002
 20
8.1875
 30
0.0
 11
6.300002
 21
8.1875
 31
0.0
  0
LINE
  8
COMPON
  6
CONTINUOUS
 62
     7
  5
378
 10
6.300002
 20
8.1875
 30
0.0
 11
6.325003
 21
8.1625
 31
0.0
  0
LINE
  8
COMPON
  6
CONTINUOUS
 62
     7
  5
379
 10
6.304289
 20
8.174372
 30
0.0
 11
6.313128
 21
8.18321
 31
0.0
  0
LINE
  8
COMPON
  6
CONTINUOUS
 62
     7
  5
37A
 10
6.313128
 20
8.18321
 30
0.0
 11
6.321967
 21
8.165533
 31
0.0
  0
LINE
  8
COMPON
  6
CONTINUOUS
 62
     7
  5
37B
 10
6.321967
 20
8.165533
 30
0.0
 11
6.304289
 21
8.174372
 31
0.0
  0
LINE
  8
COMPON
  6
CONTINUOUS
 62
     7
  5
37C
 10
6.300002
 20
8.1875
 30
0.0
 11
6.287501
 21
8.200001
 31
0.0
  0
LINE
  8
COMPON
  6
CONTINUOUS
 62
     7
  5
37D
 10
6.300002
 20
8.15
 30
0.0
 11
6.300002
 21
8.15
 31
0.0
  0
LINE
  8
COMPON
  6
CONTINUOUS
 62
     7
  5
37E
 10
6.300002
 20
8.15
 30
0.0
 11
6.325003
 21
8.125
 31
0.0
  0
LINE
  8
COMPON
  6
CONTINUOUS
 62
     7
  5
37F
 10
6.304289
 20
8.136871
 30
0.0
 11
6.313128
 21
8.14571
 31
0.0
  0
LINE
  8
COMPON
  6
CONTINUOUS
 62
     7
  5
380
 10
6.313128
 20
8.14571
 30
0.0
 11
6.321967
 21
8.128033
 31
0.0
  0
LINE
  8
COMPON
  6
CONTINUOUS
 62
     7
  5
381
 10
6.321967
 20
8.128033
 30
0.0
 11
6.304289
 21
8.136871
 31
0.0
  0
LINE
  8
COMPON
  6
CONTINUOUS
 62
     7
  5
382
 10
6.300002
 20
8.15
 30
0.0
 11
6.287501
 21
8.1625
 31
0.0
  0
LINE
  8
COMPON
  6
CONTINUOUS
 62
     7
  5
383
 10
6.500002
 20
8.200001
 30
0.0
 11
6.550002
 21
8.200001
 31
0.0
  0
LINE
  8
COMPON
  6
CONTINUOUS
 62
     7
  5
384
 10
6.15
 20
8.1
 30
0.0
 11
6.100001
 21
8.1
 31
0.0
  0
LINE
  8
COMPON
  6
CONTINUOUS
 62
     7
  5
385
 10
6.100001
 20
8.200001
 30
0.0
 11
6.050002
 21
8.200001
 31
0.0
  0
LINE
  8
COMPON
  6
CONTINUOUS
 62
     7
  5
386
 10
6.100001
 20
8.099998
 30
0.0
 11
6.050002
 21
8.099998
 31
0.0
  0
LINE
  8
COMPON
  6
CONTINUOUS
 62
     7
  5
387
 10
6.050002
 20
8.200001
 30
0.0
 11
5.950003
 21
8.200001
 31
0.0
  0
LINE
  8
COMPON
  6
CONTINUOUS
 62
     7
  5
388
 10
6.050002
 20
8.099998
 30
0.0
 11
5.950003
 21
8.099998
 31
0.0
  0
LINE
  8
COMPON
  6
CONTINUOUS
 62
     7
  5
389
 10
6.15
 20
7.9375
 30
0.0
 11
6.15
 21
7.9
 31
0.0
  0
LINE
  8
COMPON
  6
CONTINUOUS
 62
     7
  5
38A
 10
6.15
 20
7.9
 30
0.0
 11
6.15
 21
7.9375
 31
0.0
  0
LINE
  8
COMPON
  6
CONTINUOUS
 62
     7
  5
38B
 10
6.15
 20
7.924999
 30
0.0
 11
6.175002
 21
7.974998
 31
0.0
  0
LINE
  8
COMPON
  6
CONTINUOUS
 62
     7
  5
38C
 10
6.175002
 20
7.974998
 30
0.0
 11
6.125002
 21
7.974998
 31
0.0
  0
LINE
  8
COMPON
  6
CONTINUOUS
 62
     7
  5
38D
 10
6.125002
 20
7.974998
 30
0.0
 11
6.15
 21
7.924999
 31
0.0
  0
LINE
  8
COMPON
  6
CONTINUOUS
 62
     7
  5
38E
 10
6.175002
 20
7.924999
 30
0.0
 11
6.125002
 21
7.924999
 31
0.0
  0
LINE
  8
COMPON
  6
CONTINUOUS
 62
     7
  5
38F
 10
6.15
 20
7.974998
 30
0.0
 11
6.15
 21
8.0
 31
0.0
  0
LINE
  8
COMPON
  6
CONTINUOUS
 62
     7
  5
390
 10
6.15
 20
8.0
 30
0.0
 11
6.100001
 21
8.0
 31
0.0
  0
LINE
  8
COMPON
  6
CONTINUOUS
 62
     7
  5
391
 10
6.449999
 20
8.0
 30
0.0
 11
6.449999
 21
7.949999
 31
0.0
  0
LINE
  8
COMPON
  6
CONTINUOUS
 62
     7
  5
392
 10
6.449999
 20
7.949999
 30
0.0
 11
6.449999
 21
7.949999
 31
0.0
  0
LINE
  8
COMPON
  6
CONTINUOUS
 62
     7
  5
393
 10
6.449999
 20
7.949999
 30
0.0
 11
6.449999
 21
7.924999
 31
0.0
  0
LINE
  8
COMPON
  6
CONTINUOUS
 62
     7
  5
394
 10
6.449999
 20
7.924999
 30
0.0
 11
6.449999
 21
7.974998
 31
0.0
  0
LINE
  8
COMPON
  6
CONTINUOUS
 62
     7
  5
395
 10
6.449999
 20
7.974998
 30
0.0
 11
6.475001
 21
8.0
 31
0.0
  0
LINE
  8
COMPON
  6
CONTINUOUS
 62
     7
  5
396
 10
6.449999
 20
7.949999
 30
0.0
 11
6.475001
 21
7.924999
 31
0.0
  0
LINE
  8
COMPON
  6
CONTINUOUS
 62
     7
  5
397
 10
6.454291
 20
7.936871
 30
0.0
 11
6.46313
 21
7.945709
 31
0.0
  0
LINE
  8
COMPON
  6
CONTINUOUS
 62
     7
  5
398
 10
6.46313
 20
7.945709
 30
0.0
 11
6.471968
 21
7.928032
 31
0.0
  0
LINE
  8
COMPON
  6
CONTINUOUS
 62
     7
  5
399
 10
6.471968
 20
7.928032
 30
0.0
 11
6.454291
 21
7.936871
 31
0.0
  0
LINE
  8
COMPON
  6
CONTINUOUS
 62
     7
  5
39A
 10
6.450003
 20
7.9625
 30
0.0
 11
6.450003
 21
7.9625
 31
0.0
  0
LINE
  8
COMPON
  6
CONTINUOUS
 62
     7
  5
39B
 10
6.475001
 20
8.0
 30
0.0
 11
6.525
 21
8.0
 31
0.0
  0
LINE
  8
COMPON
  6
CONTINUOUS
 62
     7
  5
39C
 10
6.475001
 20
7.949999
 30
0.0
 11
6.475001
 21
7.974998
 31
0.0
  0
LINE
  8
COMPON
  6
CONTINUOUS
 62
     7
  5
39D
 10
6.475001
 20
7.974998
 30
0.0
 11
6.475001
 21
7.9
 31
0.0
  0
LINE
  8
COMPON
  6
CONTINUOUS
 62
     7
  5
39E
 10
6.475001
 20
7.924999
 30
0.0
 11
6.500002
 21
7.9
 31
0.0
  0
LINE
  8
COMPON
  6
CONTINUOUS
 62
     7
  5
39F
 10
6.475001
 20
7.949999
 30
0.0
 11
6.500002
 21
7.974998
 31
0.0
  0
LINE
  8
COMPON
  6
CONTINUOUS
 62
     7
  5
3A0
 10
6.475131
 20
7.92487
 30
0.0
 11
6.475131
 21
7.92487
 31
0.0
  0
LINE
  8
COMPON
  6
CONTINUOUS
 62
     7
  5
3A1
 10
6.475131
 20
7.92487
 30
0.0
 11
6.475131
 21
7.89987
 31
0.0
  0
LINE
  8
COMPON
  6
CONTINUOUS
 62
     7
  5
3A2
 10
6.475131
 20
7.92487
 30
0.0
 11
6.500132
 21
7.89987
 31
0.0
  0
LINE
  8
COMPON
  6
CONTINUOUS
 62
     7
  5
3A3
 10
6.479422
 20
7.911741
 30
0.0
 11
6.488261
 21
7.92058
 31
0.0
  0
LINE
  8
COMPON
  6
CONTINUOUS
 62
     7
  5
3A4
 10
6.488261
 20
7.92058
 30
0.0
 11
6.497099
 21
7.902903
 31
0.0
  0
LINE
  8
COMPON
  6
CONTINUOUS
 62
     7
  5
3A5
 10
6.497099
 20
7.902903
 30
0.0
 11
6.479422
 21
7.911741
 31
0.0
  0
LINE
  8
COMPON
  6
CONTINUOUS
 62
     7
  5
3A6
 10
6.500002
 20
7.974998
 30
0.0
 11
6.500002
 21
8.0
 31
0.0
  0
LINE
  8
COMPON
  6
CONTINUOUS
 62
     7
  5
3A7
 10
6.500002
 20
7.9
 30
0.0
 11
6.525
 21
7.9
 31
0.0
  0
LINE
  8
COMPON
  6
CONTINUOUS
 62
     7
  5
3A8
 10
6.300002
 20
7.987499
 30
0.0
 11
6.300002
 21
7.987499
 31
0.0
  0
LINE
  8
COMPON
  6
CONTINUOUS
 62
     7
  5
3A9
 10
6.300002
 20
7.987499
 30
0.0
 11
6.325003
 21
7.9625
 31
0.0
  0
LINE
  8
COMPON
  6
CONTINUOUS
 62
     7
  5
3AA
 10
6.304289
 20
7.974371
 30
0.0
 11
6.313128
 21
7.98321
 31
0.0
  0
LINE
  8
COMPON
  6
CONTINUOUS
 62
     7
  5
3AB
 10
6.313128
 20
7.98321
 30
0.0
 11
6.321967
 21
7.965532
 31
0.0
  0
LINE
  8
COMPON
  6
CONTINUOUS
 62
     7
  5
3AC
 10
6.321967
 20
7.965532
 30
0.0
 11
6.304289
 21
7.974371
 31
0.0
  0
LINE
  8
COMPON
  6
CONTINUOUS
 62
     7
  5
3AD
 10
6.300002
 20
7.987499
 30
0.0
 11
6.287501
 21
8.0
 31
0.0
  0
LINE
  8
COMPON
  6
CONTINUOUS
 62
     7
  5
3AE
 10
6.300002
 20
7.949999
 30
0.0
 11
6.300002
 21
7.949999
 31
0.0
  0
LINE
  8
COMPON
  6
CONTINUOUS
 62
     7
  5
3AF
 10
6.300002
 20
7.949999
 30
0.0
 11
6.325003
 21
7.924999
 31
0.0
  0
LINE
  8
COMPON
  6
CONTINUOUS
 62
     7
  5
3B0
 10
6.304289
 20
7.936871
 30
0.0
 11
6.313128
 21
7.945709
 31
0.0
  0
LINE
  8
COMPON
  6
CONTINUOUS
 62
     7
  5
3B1
 10
6.313128
 20
7.945709
 30
0.0
 11
6.321967
 21
7.928032
 31
0.0
  0
LINE
  8
COMPON
  6
CONTINUOUS
 62
     7
  5
3B2
 10
6.321967
 20
7.928032
 30
0.0
 11
6.304289
 21
7.936871
 31
0.0
  0
LINE
  8
COMPON
  6
CONTINUOUS
 62
     7
  5
3B3
 10
6.300002
 20
7.949999
 30
0.0
 11
6.287501
 21
7.9625
 31
0.0
  0
LINE
  8
COMPON
  6
CONTINUOUS
 62
     7
  5
3B4
 10
6.500002
 20
8.0
 30
0.0
 11
6.550002
 21
8.0
 31
0.0
  0
LINE
  8
COMPON
  6
CONTINUOUS
 62
     7
  5
3B5
 10
6.500002
 20
7.9
 30
0.0
 11
6.550002
 21
7.9
 31
0.0
  0
LINE
  8
COMPON
  6
CONTINUOUS
 62
     7
  5
3B6
 10
6.15
 20
7.9
 30
0.0
 11
6.100001
 21
7.9
 31
0.0
  0
LINE
  8
COMPON
  6
CONTINUOUS
 62
     7
  5
3B7
 10
6.100001
 20
8.0
 30
0.0
 11
6.050002
 21
8.0
 31
0.0
  0
LINE
  8
COMPON
  6
CONTINUOUS
 62
     7
  5
3B8
 10
6.100001
 20
7.9
 30
0.0
 11
6.050002
 21
7.9
 31
0.0
  0
LINE
  8
COMPON
  6
CONTINUOUS
 62
     7
  5
3B9
 10
6.050002
 20
8.0
 30
0.0
 11
5.950003
 21
8.0
 31
0.0
  0
LINE
  8
COMPON
  6
CONTINUOUS
 62
     7
  5
3BA
 10
6.050002
 20
7.9
 30
0.0
 11
5.950003
 21
7.9
 31
0.0
  0
LINE
  8
COMPON
  6
CONTINUOUS
 62
     7
  5
3BB
 10
6.550002
 20
8.0
 30
0.0
 11
6.65
 21
8.0
 31
0.0
  0
LINE
  8
COMPON
  6
CONTINUOUS
 62
     7
  5
3BC
 10
6.550002
 20
7.9
 30
0.0
 11
6.65
 21
7.9
 31
0.0
  0
LINE
  8
COMPON
  6
CONTINUOUS
 62
     7
  5
3BD
 10
6.050002
 20
8.700001
 30
0.0
 11
6.050002
 21
7.799999
 31
0.0
  0
LINE
  8
COMPON
  6
CONTINUOUS
 62
     7
  5
3BE
 10
6.550002
 20
7.799999
 30
0.0
 11
6.550002
 21
8.700001
 31
0.0
  0
TEXT
  8
COMPON
  6
CONTINUOUS
 62
    11
  5
3BF
 10
5.950003
 20
8.65
 30
0.0
 40
0.05
  1
1
  7
VC-TEXTSTYLE0
  0
TEXT
  8
COMPON
  6
CONTINUOUS
 62
    11
  5
3C0
 10
6.550002
 20
8.65
 30
0.0
 40
0.05
  1
16
  7
VC-TEXTSTYLE0
  0
TEXT
  8
COMPON
  6
CONTINUOUS
 62
    11
  5
3C1
 10
6.600001
 20
7.825003
 30
0.0
 40
0.05
  1
9
  7
VC-TEXTSTYLE0
  0
TEXT
  8
COMPON
  6
CONTINUOUS
 62
    11
  5
3C2
 10
5.950003
 20
7.825003
 30
0.0
 40
0.05
  1
8
  7
VC-TEXTSTYLE0
  0
TEXT
  8
COMPON
  6
CONTINUOUS
 62
    11
  5
3C3
 10
6.100001
 20
7.825003
 30
0.0
 40
0.05
  1
PS2502-4
  7
VC-TEXTSTYLE0
  0
LINE
  8
WIRING
  6
CONTINUOUS
 62
     7
  5
3C4
 10
6.65
 20
8.5
 30
0.0
 11
6.699999
 21
8.5
 31
0.0
  0
LINE
  8
WIRING
  6
CONTINUOUS
 62
     7
  5
3C5
 10
5.9
 20
8.599999
 30
0.0
 11
6.000002
 21
8.599999
 31
0.0
  0
LINE
  8
WIRING
  6
CONTINUOUS
 62
     7
  5
3C6
 10
5.9
 20
8.599999
 30
0.0
 11
6.15
 21
8.599999
 31
0.0
  0
LINE
  8
WIRING
  6
CONTINUOUS
 62
     7
  5
3C7
 10
5.9
 20
8.4
 30
0.0
 11
6.15
 21
8.4
 31
0.0
  0
LINE
  8
WIRING
  6
CONTINUOUS
 62
     7
  5
3C8
 10
6.75
 20
8.0
 30
0.0
 11
6.65
 21
8.0
 31
0.0
  0
LINE
  8
WIRING
  6
CONTINUOUS
 62
     7
  5
3C9
 10
6.75
 20
8.6
 30
0.0
 11
6.65
 21
8.6
 31
0.0
  0
LINE
  8
WIRING
  6
CONTINUOUS
 62
     7
  5
3CA
 10
6.75
 20
8.5
 30
0.0
 11
6.65
 21
8.5
 31
0.0
  0
LINE
  8
WIRING
  6
CONTINUOUS
 62
     7
  5
3CB
 10
6.75
 20
8.4
 30
0.0
 11
6.65
 21
8.4
 31
0.0
  0
LINE
  8
WIRING
  6
CONTINUOUS
 62
     7
  5
3CC
 10
6.75
 20
8.299999
 30
0.0
 11
6.65
 21
8.299999
 31
0.0
  0
LINE
  8
WIRING
  6
CONTINUOUS
 62
     7
  5
3CD
 10
6.75
 20
8.199999
 30
0.0
 11
6.65
 21
8.199999
 31
0.0
  0
LINE
  8
WIRING
  6
CONTINUOUS
 62
     7
  5
3CE
 10
6.75
 20
7.999998
 30
0.0
 11
6.65
 21
7.999998
 31
0.0
  0
LINE
  8
WIRING
  6
CONTINUOUS
 62
     7
  5
3CF
 10
6.050002
 20
7.799999
 30
0.0
 11
6.550002
 21
7.799999
 31
0.0
  0
LINE
  8
WIRING
  6
CONTINUOUS
 62
     7
  5
3D0
 10
7.449999
 20
7.400001
 30
0.0
 11
7.449999
 21
8.3
 31
0.0
  0
LINE
  8
COMPON
  6
CONTINUOUS
 62
     7
  5
3D1
 10
7.45
 20
7.250002
 30
0.0
 11
7.5
 21
7.225
 31
0.0
  0
LINE
  8
COMPON
  6
CONTINUOUS
 62
     7
  5
3D2
 10
7.5
 20
7.225
 30
0.0
 11
7.399999
 21
7.175001
 31
0.0
  0
LINE
  8
COMPON
  6
CONTINUOUS
 62
     7
  5
3D3
 10
7.399999
 20
7.175001
 30
0.0
 11
7.5
 21
7.125002
 31
0.0
  0
LINE
  8
COMPON
  6
CONTINUOUS
 62
     7
  5
3D4
 10
7.5
 20
7.125002
 30
0.0
 11
7.399999
 21
7.075003
 31
0.0
  0
LINE
  8
COMPON
  6
CONTINUOUS
 62
     7
  5
3D5
 10
7.399999
 20
7.075003
 30
0.0
 11
7.5
 21
7.025
 31
0.0
  0
LINE
  8
COMPON
  6
CONTINUOUS
 62
     7
  5
3D6
 10
7.5
 20
7.025
 30
0.0
 11
7.399999
 21
6.975
 31
0.0
  0
LINE
  8
COMPON
  6
CONTINUOUS
 62
     7
  5
3D7
 10
7.399999
 20
6.975
 30
0.0
 11
7.45
 21
6.950003
 31
0.0
  0
LINE
  8
COMPON
  6
CONTINUOUS
 62
     7
  5
3D8
 10
7.45
 20
6.950003
 30
0.0
 11
7.45
 21
6.9
 31
0.0
  0
LINE
  8
WIRING
  6
CONTINUOUS
 62
     7
  5
3D9
 10
7.45
 20
7.250002
 30
0.0
 11
7.45
 21
7.400002
 31
0.0
  0
LINE
  8
WIRING
  6
CONTINUOUS
 62
     7
  5
3DA
 10
7.449999
 20
6.950001
 30
0.0
 11
7.449999
 21
6.800001
 31
0.0
  0
LINE
  8
WIRING
  6
CONTINUOUS
 62
     7
  5
3DB
 10
7.449999
 20
6.800001
 30
0.0
 11
7.4
 21
6.800001
 31
0.0
  0
LINE
  8
WIRING
  6
CONTINUOUS
 62
     7
  5
3DC
 10
7.4
 20
6.800001
 30
0.0
 11
7.449999
 21
6.700001
 31
0.0
  0
LINE
  8
WIRING
  6
CONTINUOUS
 62
     7
  5
3DD
 10
7.449999
 20
6.700001
 30
0.0
 11
7.5
 21
6.800001
 31
0.0
  0
LINE
  8
WIRING
  6
CONTINUOUS
 62
     7
  5
3DE
 10
7.5
 20
6.800001
 30
0.0
 11
7.449999
 21
6.800001
 31
0.0
  0
TEXT
  8
WIRING
  6
CONTINUOUS
 62
     7
  5
3DF
 10
7.55
 20
6.95
 30
0.0
 40
0.05
  1
100K
  7
VC-TEXTSTYLE0
  0
LINE
  8
WIRING
  6
CONTINUOUS
 62
     7
  5
3E0
 10
7.599999
 20
5.8
 30
0.0
 11
7.599999
 21
6.0
 31
0.0
  0
LINE
  8
WIRING
  6
CONTINUOUS
 62
     7
  5
3E1
 10
7.599999
 20
5.8
 30
0.0
 11
7.599999
 21
5.650001
 31
0.0
  0
LINE
  8
WIRING
  6
CONTINUOUS
 62
     7
  5
3E2
 10
7.599999
 20
5.650001
 30
0.0
 11
7.599999
 21
5.6
 31
0.0
  0
LINE
  8
WIRING
  6
CONTINUOUS
 62
     7
  5
3E3
 10
7.599999
 20
5.900001
 30
0.0
 11
7.599999
 21
5.900001
 31
0.0
  0
LINE
  8
WIRING
  6
CONTINUOUS
 62
     7
  5
3E4
 10
7.599999
 20
5.900001
 30
0.0
 11
7.799999
 21
6.1
 31
0.0
  0
LINE
  8
WIRING
  6
CONTINUOUS
 62
     7
  5
3E5
 10
7.599999
 20
5.700001
 30
0.0
 11
7.706066
 21
5.593934
 31
0.0
  0
LINE
  8
WIRING
  6
CONTINUOUS
 62
     7
  5
3E6
 10
7.706066
 20
5.593934
 30
0.0
 11
7.741421
 21
5.62929
 31
0.0
  0
LINE
  8
WIRING
  6
CONTINUOUS
 62
     7
  5
3E7
 10
7.706066
 20
5.593934
 30
0.0
 11
7.67071
 21
5.558578
 31
0.0
  0
LINE
  8
WIRING
  6
CONTINUOUS
 62
     7
  5
3E8
 10
7.67071
 20
5.558578
 30
0.0
 11
7.776776
 21
5.523224
 31
0.0
  0
LINE
  8
WIRING
  6
CONTINUOUS
 62
     7
  5
3E9
 10
7.776776
 20
5.523224
 30
0.0
 11
7.741421
 21
5.62929
 31
0.0
  0
LINE
  8
WIRING
  6
CONTINUOUS
 62
     7
  5
3EA
 10
7.776776
 20
5.523224
 30
0.0
 11
7.847487
 21
5.452513
 31
0.0
  0
LINE
  8
WIRING
  6
CONTINUOUS
 62
     7
  5
3EB
 10
7.85
 20
5.45
 30
0.0
 11
7.85
 21
5.349999
 31
0.0
  0
LINE
  8
WIRING
  6
CONTINUOUS
 62
     7
  5
3EC
 10
7.85
 20
5.349999
 30
0.0
 11
7.8
 21
5.349999
 31
0.0
  0
LINE
  8
WIRING
  6
CONTINUOUS
 62
     7
  5
3ED
 10
7.9
 20
5.349999
 30
0.0
 11
7.85
 21
5.349999
 31
0.0
  0
LINE
  8
WIRING
  6
CONTINUOUS
 62
     7
  5
3EE
 10
7.8
 20
6.099999
 30
0.0
 11
8.15
 21
6.099999
 31
0.0
  0
TEXT
  8
WIRING
  6
CONTINUOUS
 62
     7
  5
3EF
 10
7.65
 20
5.849999
 30
0.0
 40
0.05
  1
2N2222A
  7
VC-TEXTSTYLE0
  0
ARC
  8
WIRING
  6
CONTINUOUS
 62
     7
  5
3F0
 10
8.2
 20
6.099999
 30
0.0
 40
0.05
 50
360.0
 51
540.0
  0
ARC
  8
WIRING
  6
CONTINUOUS
 62
     7
  5
3F1
 10
8.3
 20
6.099999
 30
0.0
 40
0.05
 50
360.0
 51
540.0
  0
ARC
  8
WIRING
  6
CONTINUOUS
 62
     7
  5
3F2
 10
8.400001
 20
6.099999
 30
0.0
 40
0.05
 50
360.0
 51
540.0
  0
ARC
  8
WIRING
  6
CONTINUOUS
 62
     7
  5
3F3
 10
8.500001
 20
6.099999
 30
0.0
 40
0.05
 50
360.0
 51
540.0
  0
LINE
  8
WIRING
  6
CONTINUOUS
 62
     7
  5
3F4
 10
8.549999
 20
6.1
 30
0.0
 11
8.85
 21
6.1
 31
0.0
  0
LINE
  8
WIRING
  6
CONTINUOUS
 62
     7
  5
3F5
 10
8.049999
 20
6.1
 30
0.0
 11
8.049999
 21
5.95
 31
0.0
  0
LINE
  8
WIRING
  6
CONTINUOUS
 62
     7
  5
3F6
 10
8.049999
 20
5.95
 30
0.0
 11
8.299999
 21
5.95
 31
0.0
  0
LINE
  8
WIRING
  6
CONTINUOUS
 62
     7
  5
3F7
 10
8.299999
 20
5.95
 30
0.0
 11
8.299999
 21
6.0
 31
0.0
  0
LINE
  8
WIRING
  6
CONTINUOUS
 62
     7
  5
3F8
 10
8.299999
 20
6.0
 30
0.0
 11
8.4
 21
5.95
 31
0.0
  0
LINE
  8
WIRING
  6
CONTINUOUS
 62
     7
  5
3F9
 10
8.4
 20
5.95
 30
0.0
 11
8.299999
 21
5.900001
 31
0.0
  0
LINE
  8
WIRING
  6
CONTINUOUS
 62
     7
  5
3FA
 10
8.299999
 20
5.900001
 30
0.0
 11
8.299999
 21
5.95
 31
0.0
  0
LINE
  8
WIRING
  6
CONTINUOUS
 62
     7
  5
3FB
 10
8.4
 20
5.95
 30
0.0
 11
8.4
 21
6.0
 31
0.0
  0
LINE
  8
WIRING
  6
CONTINUOUS
 62
     7
  5
3FC
 10
8.4
 20
5.95
 30
0.0
 11
8.4
 21
5.900001
 31
0.0
  0
LINE
  8
WIRING
  6
CONTINUOUS
 62
     7
  5
3FD
 10
8.4
 20
5.95
 30
0.0
 11
8.65
 21
5.95
 31
0.0
  0
LINE
  8
WIRING
  6
CONTINUOUS
 62
     7
  5
3FE
 10
8.65
 20
5.95
 30
0.0
 11
8.65
 21
6.1
 31
0.0
  0
LINE
  8
WIRING
  6
CONTINUOUS
 62
     7
  5
3FF
 10
4.899998
 20
9.0
 30
0.0
 11
4.899998
 21
8.8
 31
0.0
  0
LINE
  8
WIRING
  6
CONTINUOUS
 62
     7
  5
400
 10
4.899998
 20
9.0
 30
0.0
 11
4.899998
 21
9.15
 31
0.0
  0
LINE
  8
WIRING
  6
CONTINUOUS
 62
     7
  5
401
 10
4.899998
 20
9.15
 30
0.0
 11
4.899998
 21
9.2
 31
0.0
  0
LINE
  8
WIRING
  6
CONTINUOUS
 62
     7
  5
402
 10
4.899998
 20
8.9
 30
0.0
 11
4.899998
 21
8.9
 31
0.0
  0
LINE
  8
WIRING
  6
CONTINUOUS
 62
     7
  5
403
 10
4.899998
 20
8.9
 30
0.0
 11
5.099997
 21
8.7
 31
0.0
  0
LINE
  8
WIRING
  6
CONTINUOUS
 62
     7
  5
404
 10
4.899998
 20
9.099999
 30
0.0
 11
5.006064
 21
9.206066
 31
0.0
  0
LINE
  8
WIRING
  6
CONTINUOUS
 62
     7
  5
405
 10
4.970707
 20
9.170712
 30
0.0
 11
5.006062
 21
9.135356
 31
0.0
  0
LINE
  8
WIRING
  6
CONTINUOUS
 62
     7
  5
406
 10
4.970707
 20
9.170712
 30
0.0
 11
4.935351
 21
9.206067
 31
0.0
  0
LINE
  8
WIRING
  6
CONTINUOUS
 62
     7
  5
407
 10
4.935351
 20
9.206067
 30
0.0
 11
4.899998
 21
9.099999
 31
0.0
  0
LINE
  8
WIRING
  6
CONTINUOUS
 62
     7
  5
408
 10
4.899998
 20
9.099999
 30
0.0
 11
5.006062
 21
9.135356
 31
0.0
  0
LINE
  8
WIRING
  6
CONTINUOUS
 62
     7
  5
409
 10
4.899999
 20
9.1
 30
0.0
 11
5.149999
 21
9.35
 31
0.0
  0
LINE
  8
WIRING
  6
CONTINUOUS
 62
     7
  5
40A
 10
4.549999
 20
9.0
 30
0.0
 11
4.899999
 21
9.0
 31
0.0
  0
LINE
  8
WIRING
  6
CONTINUOUS
 62
     7
  5
40B
 10
5.15
 20
9.35
 30
0.0
 11
5.45
 21
9.35
 31
0.0
  0
LINE
  8
COMPON
  6
CONTINUOUS
 62
     7
  5
40C
 10
4.550001
 20
9.450002
 30
0.0
 11
4.500002
 21
9.425
 31
0.0
  0
LINE
  8
COMPON
  6
CONTINUOUS
 62
     7
  5
40D
 10
4.500002
 20
9.425
 30
0.0
 11
4.600002
 21
9.375001
 31
0.0
  0
LINE
  8
COMPON
  6
CONTINUOUS
 62
     7
  5
40E
 10
4.600002
 20
9.375001
 30
0.0
 11
4.500002
 21
9.325002
 31
0.0
  0
LINE
  8
COMPON
  6
CONTINUOUS
 62
     7
  5
40F
 10
4.500002
 20
9.325002
 30
0.0
 11
4.600002
 21
9.275002
 31
0.0
  0
LINE
  8
COMPON
  6
CONTINUOUS
 62
     7
  5
410
 10
4.600002
 20
9.275002
 30
0.0
 11
4.500002
 21
9.224999
 31
0.0
  0
LINE
  8
COMPON
  6
CONTINUOUS
 62
     7
  5
411
 10
4.500002
 20
9.224999
 30
0.0
 11
4.600002
 21
9.175
 31
0.0
  0
LINE
  8
COMPON
  6
CONTINUOUS
 62
     7
  5
412
 10
4.600002
 20
9.175
 30
0.0
 11
4.550001
 21
9.150002
 31
0.0
  0
LINE
  8
COMPON
  6
CONTINUOUS
 62
     7
  5
413
 10
4.550001
 20
9.150002
 30
0.0
 11
4.550001
 21
9.099999
 31
0.0
  0
LINE
  8
WIRING
  6
CONTINUOUS
 62
     7
  5
414
 10
4.550001
 20
9.450002
 30
0.0
 11
4.550001
 21
9.600001
 31
0.0
  0
LINE
  8
WIRING
  6
CONTINUOUS
 62
     7
  5
415
 10
4.550002
 20
9.150001
 30
0.0
 11
4.550002
 21
9.000001
 31
0.0
  0
LINE
  8
WIRING
  6
CONTINUOUS
 62
     7
  5
416
 10
4.099998
 20
9.299998
 30
0.0
 11
4.099998
 21
9.499999
 31
0.0
  0
LINE
  8
WIRING
  6
CONTINUOUS
 62
     7
  5
417
 10
4.099998
 20
9.299998
 30
0.0
 11
4.099998
 21
9.15
 31
0.0
  0
LINE
  8
WIRING
  6
CONTINUOUS
 62
     7
  5
418
 10
4.099998
 20
9.15
 30
0.0
 11
4.099998
 21
9.099998
 31
0.0
  0
LINE
  8
WIRING
  6
CONTINUOUS
 62
     7
  5
419
 10
4.099998
 20
9.399999
 30
0.0
 11
4.099998
 21
9.399999
 31
0.0
  0
LINE
  8
WIRING
  6
CONTINUOUS
 62
     7
  5
41A
 10
4.099998
 20
9.399999
 30
0.0
 11
4.299997
 21
9.599999
 31
0.0
  0
LINE
  8
WIRING
  6
CONTINUOUS
 62
     7
  5
41B
 10
4.099998
 20
9.199999
 30
0.0
 11
4.206064
 21
9.093933
 31
0.0
  0
LINE
  8
WIRING
  6
CONTINUOUS
 62
     7
  5
41C
 10
4.206064
 20
9.093933
 30
0.0
 11
4.241421
 21
9.129288
 31
0.0
  0
LINE
  8
WIRING
  6
CONTINUOUS
 62
     7
  5
41D
 10
4.206064
 20
9.093933
 30
0.0
 11
4.17071
 21
9.058577
 31
0.0
  0
LINE
  8
WIRING
  6
CONTINUOUS
 62
     7
  5
41E
 10
4.17071
 20
9.058577
 30
0.0
 11
4.276775
 21
9.023222
 31
0.0
  0
LINE
  8
WIRING
  6
CONTINUOUS
 62
     7
  5
41F
 10
4.276775
 20
9.023222
 30
0.0
 11
4.241421
 21
9.129288
 31
0.0
  0
LINE
  8
WIRING
  6
CONTINUOUS
 62
     7
  5
420
 10
4.276775
 20
9.023222
 30
0.0
 11
4.347486
 21
8.952511
 31
0.0
  0
LINE
  8
WIRING
  6
CONTINUOUS
 62
     7
  5
421
 10
4.349998
 20
8.949999
 30
0.0
 11
4.349998
 21
8.849998
 31
0.0
  0
LINE
  8
WIRING
  6
CONTINUOUS
 62
     7
  5
422
 10
4.349998
 20
8.849998
 30
0.0
 11
4.299999
 21
8.849998
 31
0.0
  0
LINE
  8
WIRING
  6
CONTINUOUS
 62
     7
  5
423
 10
4.299999
 20
8.849998
 30
0.0
 11
4.349998
 21
8.749998
 31
0.0
  0
LINE
  8
WIRING
  6
CONTINUOUS
 62
     7
  5
424
 10
4.349998
 20
8.749998
 30
0.0
 11
4.4
 21
8.849998
 31
0.0
  0
LINE
  8
WIRING
  6
CONTINUOUS
 62
     7
  5
425
 10
4.4
 20
8.849998
 30
0.0
 11
4.349998
 21
8.849998
 31
0.0
  0
TEXT
  8
WIRING
  6
CONTINUOUS
 62
     7
  5
426
 10
4.15
 20
9.349998
 30
0.0
 40
0.05
  1
2N2222A
  7
VC-TEXTSTYLE0
  0
LINE
  8
WIRING
  6
CONTINUOUS
 62
     7
  5
427
 10
4.3
 20
9.6
 30
0.0
 11
4.55
 21
9.6
 31
0.0
  0
LINE
  8
WIRING
  6
CONTINUOUS
 62
     7
  5
428
 10
4.1
 20
9.3
 30
0.0
 11
3.9
 21
9.3
 31
0.0
  0
LINE
  8
COMPON
  6
CONTINUOUS
 62
     7
  5
429
 10
3.900001
 20
9.750002
 30
0.0
 11
3.850002
 21
9.725
 31
0.0
  0
LINE
  8
COMPON
  6
CONTINUOUS
 62
     7
  5
42A
 10
3.850002
 20
9.725
 30
0.0
 11
3.950002
 21
9.675001
 31
0.0
  0
LINE
  8
COMPON
  6
CONTINUOUS
 62
     7
  5
42B
 10
3.950002
 20
9.675001
 30
0.0
 11
3.850002
 21
9.625002
 31
0.0
  0
LINE
  8
COMPON
  6
CONTINUOUS
 62
     7
  5
42C
 10
3.850002
 20
9.625002
 30
0.0
 11
3.950002
 21
9.575003
 31
0.0
  0
LINE
  8
COMPON
  6
CONTINUOUS
 62
     7
  5
42D
 10
3.950002
 20
9.575003
 30
0.0
 11
3.850002
 21
9.525
 31
0.0
  0
LINE
  8
COMPON
  6
CONTINUOUS
 62
     7
  5
42E
 10
3.850002
 20
9.525
 30
0.0
 11
3.950002
 21
9.475
 31
0.0
  0
LINE
  8
COMPON
  6
CONTINUOUS
 62
     7
  5
42F
 10
3.950002
 20
9.475
 30
0.0
 11
3.900001
 21
9.450003
 31
0.0
  0
LINE
  8
COMPON
  6
CONTINUOUS
 62
     7
  5
430
 10
3.900001
 20
9.450003
 30
0.0
 11
3.900001
 21
9.4
 31
0.0
  0
LINE
  8
WIRING
  6
CONTINUOUS
 62
     7
  5
431
 10
3.900001
 20
9.750002
 30
0.0
 11
3.900001
 21
9.900002
 31
0.0
  0
LINE
  8
WIRING
  6
CONTINUOUS
 62
     7
  5
432
 10
3.900002
 20
9.450001
 30
0.0
 11
3.900002
 21
9.300001
 31
0.0
  0
LINE
  8
WIRING
  6
CONTINUOUS
 62
     7
  5
433
 10
7.8
 20
5.349999
 30
0.0
 11
7.85
 21
5.25
 31
0.0
  0
LINE
  8
WIRING
  6
CONTINUOUS
 62
     7
  5
434
 10
7.85
 20
5.25
 30
0.0
 11
7.9
 21
5.349999
 31
0.0
  0
LINE
  8
WIRING
  6
CONTINUOUS
 62
     7
  5
435
 10
8.8
 20
-0.05
 30
0.0
 11
8.5
 21
-0.05
 31
0.0
  0
LINE
  8
WIRING
  6
CONTINUOUS
 62
     7
  5
436
 10
8.5
 20
-0.05
 30
0.0
 11
8.5
 21
0.55
 31
0.0
  0
LINE
  8
WIRING
  6
CONTINUOUS
 62
     7
  5
437
 10
8.5
 20
0.55
 30
0.0
 11
8.8
 21
0.55
 31
0.0
  0
LINE
  8
WIRING
  6
CONTINUOUS
 62
     7
  5
438
 10
8.900001
 20
0.3
 30
0.0
 11
8.400001
 21
0.3
 31
0.0
  0
LINE
  8
WIRING
  6
CONTINUOUS
 62
     7
  5
439
 10
7.5
 20
-0.600001
 30
0.0
 11
7.549999
 21
-0.700001
 31
0.0
  0
LINE
  8
WIRING
  6
CONTINUOUS
 62
     7
  5
43A
 10
7.549999
 20
-0.700001
 30
0.0
 11
7.599998
 21
-0.600001
 31
0.0
  0
LINE
  8
WIRING
  6
CONTINUOUS
 62
     7
  5
43B
 10
7.599998
 20
-0.600001
 30
0.0
 11
7.650002
 21
-0.700001
 31
0.0
  0
LINE
  8
WIRING
  6
CONTINUOUS
 62
     7
  5
43C
 10
7.650002
 20
-0.700001
 30
0.0
 11
7.700001
 21
-0.600001
 31
0.0
  0
LINE
  8
WIRING
  6
CONTINUOUS
 62
     7
  5
43D
 10
7.700001
 20
-0.600001
 30
0.0
 11
7.75
 21
-0.700001
 31
0.0
  0
LINE
  8
WIRING
  6
CONTINUOUS
 62
     7
  5
43E
 10
7.75
 20
-0.700001
 30
0.0
 11
7.774997
 21
-0.650001
 31
0.0
  0
LINE
  8
WIRING
  6
CONTINUOUS
 62
     7
  5
43F
 10
7.774997
 20
-0.650001
 30
0.0
 11
7.799999
 21
-0.650001
 31
0.0
  0
LINE
  8
WIRING
  6
CONTINUOUS
 62
     7
  5
440
 10
7.5
 20
-0.600001
 30
0.0
 11
7.474998
 21
-0.650001
 31
0.0
  0
LINE
  8
WIRING
  6
CONTINUOUS
 62
     7
  5
441
 10
7.474998
 20
-0.650001
 30
0.0
 11
7.349998
 21
-0.650001
 31
0.0
  0
LINE
  8
WIRING
  6
CONTINUOUS
 62
     7
  5
442
 10
7.5
 20
-0.800001
 30
0.0
 11
7.549999
 21
-0.9
 31
0.0
  0
LINE
  8
WIRING
  6
CONTINUOUS
 62
     7
  5
443
 10
7.549999
 20
-0.9
 30
0.0
 11
7.599998
 21
-0.800001
 31
0.0
  0
LINE
  8
WIRING
  6
CONTINUOUS
 62
     7
  5
444
 10
7.599998
 20
-0.800001
 30
0.0
 11
7.650002
 21
-0.9
 31
0.0
  0
LINE
  8
WIRING
  6
CONTINUOUS
 62
     7
  5
445
 10
7.650002
 20
-0.9
 30
0.0
 11
7.700001
 21
-0.800001
 31
0.0
  0
LINE
  8
WIRING
  6
CONTINUOUS
 62
     7
  5
446
 10
7.700001
 20
-0.800001
 30
0.0
 11
7.75
 21
-0.9
 31
0.0
  0
LINE
  8
WIRING
  6
CONTINUOUS
 62
     7
  5
447
 10
7.75
 20
-0.9
 30
0.0
 11
7.774997
 21
-0.850001
 31
0.0
  0
LINE
  8
WIRING
  6
CONTINUOUS
 62
     7
  5
448
 10
7.774997
 20
-0.850001
 30
0.0
 11
7.799999
 21
-0.850001
 31
0.0
  0
LINE
  8
WIRING
  6
CONTINUOUS
 62
     7
  5
449
 10
7.5
 20
-0.800001
 30
0.0
 11
7.474998
 21
-0.850001
 31
0.0
  0
LINE
  8
WIRING
  6
CONTINUOUS
 62
     7
  5
44A
 10
7.474998
 20
-0.850001
 30
0.0
 11
7.349998
 21
-0.850001
 31
0.0
  0
LINE
  8
WIRING
  6
CONTINUOUS
 62
     7
  5
44B
 10
7.5
 20
-1.000001
 30
0.0
 11
7.549999
 21
-1.100001
 31
0.0
  0
LINE
  8
WIRING
  6
CONTINUOUS
 62
     7
  5
44C
 10
7.549999
 20
-1.100001
 30
0.0
 11
7.599998
 21
-1.000001
 31
0.0
  0
LINE
  8
WIRING
  6
CONTINUOUS
 62
     7
  5
44D
 10
7.599998
 20
-1.000001
 30
0.0
 11
7.650002
 21
-1.100001
 31
0.0
  0
LINE
  8
WIRING
  6
CONTINUOUS
 62
     7
  5
44E
 10
7.650002
 20
-1.100001
 30
0.0
 11
7.700001
 21
-1.000001
 31
0.0
  0
LINE
  8
WIRING
  6
CONTINUOUS
 62
     7
  5
44F
 10
7.700001
 20
-1.000001
 30
0.0
 11
7.75
 21
-1.100001
 31
0.0
  0
LINE
  8
WIRING
  6
CONTINUOUS
 62
     7
  5
450
 10
7.75
 20
-1.100001
 30
0.0
 11
7.774997
 21
-1.050001
 31
0.0
  0
LINE
  8
WIRING
  6
CONTINUOUS
 62
     7
  5
451
 10
7.774997
 20
-1.050001
 30
0.0
 11
7.799999
 21
-1.050001
 31
0.0
  0
LINE
  8
WIRING
  6
CONTINUOUS
 62
     7
  5
452
 10
7.5
 20
-1.000001
 30
0.0
 11
7.474998
 21
-1.050001
 31
0.0
  0
LINE
  8
WIRING
  6
CONTINUOUS
 62
     7
  5
453
 10
7.474998
 20
-1.050001
 30
0.0
 11
7.349998
 21
-1.050001
 31
0.0
  0
LINE
  8
WIRING
  6
CONTINUOUS
 62
     7
  5
454
 10
7.799999
 20
-0.850001
 30
0.0
 11
7.849998
 21
-0.850001
 31
0.0
  0
LINE
  8
WIRING
  6
CONTINUOUS
 62
     7
  5
455
 10
7.799999
 20
-1.050001
 30
0.0
 11
7.849998
 21
-1.050001
 31
0.0
  0
LINE
  8
WIRING
  6
CONTINUOUS
 62
     7
  5
456
 10
7.8
 20
-0.65
 30
0.0
 11
7.85
 21
-0.65
 31
0.0
  0
LINE
  8
WIRING
  6
CONTINUOUS
 62
     7
  5
457
 10
7.5
 20
-0.400001
 30
0.0
 11
7.549999
 21
-0.500001
 31
0.0
  0
LINE
  8
WIRING
  6
CONTINUOUS
 62
     7
  5
458
 10
7.549999
 20
-0.500001
 30
0.0
 11
7.599998
 21
-0.400001
 31
0.0
  0
LINE
  8
WIRING
  6
CONTINUOUS
 62
     7
  5
459
 10
7.599998
 20
-0.400001
 30
0.0
 11
7.650002
 21
-0.500001
 31
0.0
  0
LINE
  8
WIRING
  6
CONTINUOUS
 62
     7
  5
45A
 10
7.650002
 20
-0.500001
 30
0.0
 11
7.700001
 21
-0.400001
 31
0.0
  0
LINE
  8
WIRING
  6
CONTINUOUS
 62
     7
  5
45B
 10
7.700001
 20
-0.400001
 30
0.0
 11
7.75
 21
-0.500001
 31
0.0
  0
LINE
  8
WIRING
  6
CONTINUOUS
 62
     7
  5
45C
 10
7.75
 20
-0.500001
 30
0.0
 11
7.774997
 21
-0.450001
 31
0.0
  0
LINE
  8
WIRING
  6
CONTINUOUS
 62
     7
  5
45D
 10
7.774997
 20
-0.450001
 30
0.0
 11
7.799999
 21
-0.450001
 31
0.0
  0
LINE
  8
WIRING
  6
CONTINUOUS
 62
     7
  5
45E
 10
7.5
 20
-0.400001
 30
0.0
 11
7.474998
 21
-0.450001
 31
0.0
  0
LINE
  8
WIRING
  6
CONTINUOUS
 62
     7
  5
45F
 10
7.474998
 20
-0.450001
 30
0.0
 11
7.349998
 21
-0.450001
 31
0.0
  0
LINE
  8
WIRING
  6
CONTINUOUS
 62
     7
  5
460
 10
7.8
 20
-0.45
 30
0.0
 11
7.85
 21
-0.45
 31
0.0
  0
LINE
  8
WIRING
  6
CONTINUOUS
 62
     7
  5
461
 10
7.95
 20
-0.500001
 30
0.0
 11
8.0
 21
-0.600001
 31
0.0
  0
LINE
  8
WIRING
  6
CONTINUOUS
 62
     7
  5
462
 10
8.0
 20
-0.600001
 30
0.0
 11
8.049999
 21
-0.500001
 31
0.0
  0
LINE
  8
WIRING
  6
CONTINUOUS
 62
     7
  5
463
 10
8.049999
 20
-0.500001
 30
0.0
 11
8.100002
 21
-0.600001
 31
0.0
  0
LINE
  8
WIRING
  6
CONTINUOUS
 62
     7
  5
464
 10
8.100002
 20
-0.600001
 30
0.0
 11
8.150002
 21
-0.500001
 31
0.0
  0
LINE
  8
WIRING
  6
CONTINUOUS
 62
     7
  5
465
 10
8.150002
 20
-0.500001
 30
0.0
 11
8.2
 21
-0.600001
 31
0.0
  0
LINE
  8
WIRING
  6
CONTINUOUS
 62
     7
  5
466
 10
8.2
 20
-0.600001
 30
0.0
 11
8.224998
 21
-0.550001
 31
0.0
  0
LINE
  8
WIRING
  6
CONTINUOUS
 62
     7
  5
467
 10
8.224998
 20
-0.550001
 30
0.0
 11
8.249999
 21
-0.550001
 31
0.0
  0
LINE
  8
WIRING
  6
CONTINUOUS
 62
     7
  5
468
 10
7.95
 20
-0.500001
 30
0.0
 11
7.924999
 21
-0.550001
 31
0.0
  0
LINE
  8
WIRING
  6
CONTINUOUS
 62
     7
  5
469
 10
7.924999
 20
-0.550001
 30
0.0
 11
7.799999
 21
-0.550001
 31
0.0
  0
LINE
  8
WIRING
  6
CONTINUOUS
 62
     7
  5
46A
 10
7.95
 20
-0.700001
 30
0.0
 11
8.0
 21
-0.8
 31
0.0
  0
LINE
  8
WIRING
  6
CONTINUOUS
 62
     7
  5
46B
 10
8.0
 20
-0.8
 30
0.0
 11
8.049999
 21
-0.700001
 31
0.0
  0
LINE
  8
WIRING
  6
CONTINUOUS
 62
     7
  5
46C
 10
8.049999
 20
-0.700001
 30
0.0
 11
8.100002
 21
-0.8
 31
0.0
  0
LINE
  8
WIRING
  6
CONTINUOUS
 62
     7
  5
46D
 10
8.100002
 20
-0.8
 30
0.0
 11
8.150002
 21
-0.700001
 31
0.0
  0
LINE
  8
WIRING
  6
CONTINUOUS
 62
     7
  5
46E
 10
8.150002
 20
-0.700001
 30
0.0
 11
8.2
 21
-0.8
 31
0.0
  0
LINE
  8
WIRING
  6
CONTINUOUS
 62
     7
  5
46F
 10
8.2
 20
-0.8
 30
0.0
 11
8.224998
 21
-0.750001
 31
0.0
  0
LINE
  8
WIRING
  6
CONTINUOUS
 62
     7
  5
470
 10
8.224998
 20
-0.750001
 30
0.0
 11
8.249999
 21
-0.750001
 31
0.0
  0
LINE
  8
WIRING
  6
CONTINUOUS
 62
     7
  5
471
 10
7.95
 20
-0.700001
 30
0.0
 11
7.924999
 21
-0.750001
 31
0.0
  0
LINE
  8
WIRING
  6
CONTINUOUS
 62
     7
  5
472
 10
7.924999
 20
-0.750001
 30
0.0
 11
7.799999
 21
-0.750001
 31
0.0
  0
LINE
  8
WIRING
  6
CONTINUOUS
 62
     7
  5
473
 10
7.95
 20
-0.900001
 30
0.0
 11
8.0
 21
-1.000001
 31
0.0
  0
LINE
  8
WIRING
  6
CONTINUOUS
 62
     7
  5
474
 10
8.0
 20
-1.000001
 30
0.0
 11
8.049999
 21
-0.900001
 31
0.0
  0
LINE
  8
WIRING
  6
CONTINUOUS
 62
     7
  5
475
 10
8.049999
 20
-0.900001
 30
0.0
 11
8.100002
 21
-1.000001
 31
0.0
  0
LINE
  8
WIRING
  6
CONTINUOUS
 62
     7
  5
476
 10
8.100002
 20
-1.000001
 30
0.0
 11
8.150002
 21
-0.900001
 31
0.0
  0
LINE
  8
WIRING
  6
CONTINUOUS
 62
     7
  5
477
 10
8.150002
 20
-0.900001
 30
0.0
 11
8.2
 21
-1.000001
 31
0.0
  0
LINE
  8
WIRING
  6
CONTINUOUS
 62
     7
  5
478
 10
8.2
 20
-1.000001
 30
0.0
 11
8.224998
 21
-0.950001
 31
0.0
  0
LINE
  8
WIRING
  6
CONTINUOUS
 62
     7
  5
479
 10
8.224998
 20
-0.950001
 30
0.0
 11
8.249999
 21
-0.950001
 31
0.0
  0
LINE
  8
WIRING
  6
CONTINUOUS
 62
     7
  5
47A
 10
7.95
 20
-0.900001
 30
0.0
 11
7.924999
 21
-0.950001
 31
0.0
  0
LINE
  8
WIRING
  6
CONTINUOUS
 62
     7
  5
47B
 10
7.924999
 20
-0.950001
 30
0.0
 11
7.799999
 21
-0.950001
 31
0.0
  0
LINE
  8
WIRING
  6
CONTINUOUS
 62
     7
  5
47C
 10
8.249999
 20
-0.750001
 30
0.0
 11
8.299998
 21
-0.750001
 31
0.0
  0
LINE
  8
WIRING
  6
CONTINUOUS
 62
     7
  5
47D
 10
8.25
 20
-0.55
 30
0.0
 11
8.3
 21
-0.55
 31
0.0
  0
LINE
  8
WIRING
  6
CONTINUOUS
 62
     7
  5
47E
 10
7.85
 20
-0.45
 30
0.0
 11
8.5
 21
-0.45
 31
0.0
  0
LINE
  8
WIRING
  6
CONTINUOUS
 62
     7
  5
47F
 10
8.5
 20
-0.45
 30
0.0
 11
8.5
 21
-1.05
 31
0.0
  0
LINE
  8
WIRING
  6
CONTINUOUS
 62
     7
  5
480
 10
8.5
 20
-1.05
 30
0.0
 11
8.8
 21
-1.05
 31
0.0
  0
LINE
  8
WIRING
  6
CONTINUOUS
 62
     7
  5
481
 10
8.3
 20
-0.55
 30
0.0
 11
8.45
 21
-0.55
 31
0.0
  0
LINE
  8
WIRING
  6
CONTINUOUS
 62
     7
  5
482
 10
8.45
 20
-0.55
 30
0.0
 11
8.45
 21
-0.9
 31
0.0
  0
LINE
  8
WIRING
  6
CONTINUOUS
 62
     7
  5
483
 10
8.45
 20
-0.9
 30
0.0
 11
8.85
 21
-0.9
 31
0.0
  0
LINE
  8
WIRING
  6
CONTINUOUS
 62
     7
  5
484
 10
7.85
 20
-0.65
 30
0.0
 11
8.400001
 21
-0.65
 31
0.0
  0
LINE
  8
WIRING
  6
CONTINUOUS
 62
     7
  5
485
 10
8.400001
 20
-0.65
 30
0.0
 11
8.400001
 21
-0.95
 31
0.0
  0
LINE
  8
WIRING
  6
CONTINUOUS
 62
     7
  5
486
 10
8.400001
 20
-0.95
 30
0.0
 11
8.8
 21
-0.95
 31
0.0
  0
LINE
  8
WIRING
  6
CONTINUOUS
 62
     7
  5
487
 10
7.85
 20
-0.85
 30
0.0
 11
8.8
 21
-0.85
 31
0.0
  0
LINE
  8
WIRING
  6
CONTINUOUS
 62
     7
  5
488
 10
7.85
 20
-1.05
 30
0.0
 11
8.35
 21
-1.05
 31
0.0
  0
LINE
  8
WIRING
  6
CONTINUOUS
 62
     7
  5
489
 10
8.35
 20
-1.05
 30
0.0
 11
8.35
 21
-1.0
 31
0.0
  0
LINE
  8
WIRING
  6
CONTINUOUS
 62
     7
  5
48A
 10
8.35
 20
-1.0
 30
0.0
 11
8.55
 21
-1.0
 31
0.0
  0
LINE
  8
WIRING
  6
CONTINUOUS
 62
     7
  5
48B
 10
8.249999
 20
-0.950001
 30
0.0
 11
8.349998
 21
-0.950001
 31
0.0
  0
LINE
  8
WIRING
  6
CONTINUOUS
 62
     7
  5
48C
 10
8.3
 20
-0.8
 30
0.0
 11
8.6
 21
-0.8
 31
0.0
  0
LINE
  8
WIRING
  6
CONTINUOUS
 62
     7
  5
48D
 10
8.3
 20
-0.75
 30
0.0
 11
8.3
 21
-0.75
 31
0.0
  0
LINE
  8
WIRING
  6
CONTINUOUS
 62
     7
  5
48E
 10
8.3
 20
-0.75
 30
0.0
 11
8.3
 21
-0.8
 31
0.0
  0
LINE
  8
WIRING
  6
CONTINUOUS
 62
     7
  5
48F
 10
8.35
 20
-0.7
 30
0.0
 11
8.85
 21
-0.7
 31
0.0
  0
LINE
  8
WIRING
  6
CONTINUOUS
 62
     7
  5
490
 10
8.35
 20
-0.95
 30
0.0
 11
8.35
 21
-0.7
 31
0.0
  0
LINE
  8
WIRING
  6
CONTINUOUS
 62
     7
  5
491
 10
7.8
 20
-0.95
 30
0.0
 11
7.35
 21
-0.95
 31
0.0
  0
LINE
  8
WIRING
  6
CONTINUOUS
 62
     7
  5
492
 10
7.8
 20
-0.75
 30
0.0
 11
7.35
 21
-0.75
 31
0.0
  0
LINE
  8
WIRING
  6
CONTINUOUS
 62
     7
  5
493
 10
7.8
 20
-0.55
 30
0.0
 11
7.35
 21
-0.55
 31
0.0
  0
LINE
  8
WIRING
  6
CONTINUOUS
 62
     7
  5
494
 10
7.35
 20
-1.05
 30
0.0
 11
3.4
 21
-1.05
 31
0.0
  0
LINE
  8
WIRING
  6
CONTINUOUS
 62
     7
  5
495
 10
3.4
 20
-1.05
 30
0.0
 11
3.4
 21
-0.7
 31
0.0
  0
LINE
  8
WIRING
  6
CONTINUOUS
 62
     7
  5
496
 10
7.35
 20
-0.95
 30
0.0
 11
4.6
 21
-0.95
 31
0.0
  0
LINE
  8
WIRING
  6
CONTINUOUS
 62
     7
  5
497
 10
4.6
 20
-0.95
 30
0.0
 11
4.6
 21
0.8
 31
0.0
  0
LINE
  8
WIRING
  6
CONTINUOUS
 62
     7
  5
498
 10
7.35
 20
-0.75
 30
0.0
 11
4.8
 21
-0.75
 31
0.0
  0
LINE
  8
WIRING
  6
CONTINUOUS
 62
     7
  5
499
 10
4.8
 20
-0.75
 30
0.0
 11
4.8
 21
3.6
 31
0.0
  0
LINE
  8
WIRING
  6
CONTINUOUS
 62
     7
  5
49A
 10
4.8
 20
3.6
 30
0.0
 11
4.6
 21
3.6
 31
0.0
  0
LINE
  8
WIRING
  6
CONTINUOUS
 62
     7
  5
49B
 10
4.6
 20
5.0
 30
0.0
 11
4.6
 21
6.4
 31
0.0
  0
LINE
  8
WIRING
  6
CONTINUOUS
 62
     7
  5
49C
 10
4.7
 20
5.1
 30
0.0
 11
4.7
 21
6.9
 31
0.0
  0
LINE
  8
WIRING
  6
CONTINUOUS
 62
     7
  5
49D
 10
4.7
 20
6.9
 30
0.0
 11
4.7
 21
7.0
 31
0.0
  0
LINE
  8
WIRING
  6
CONTINUOUS
 62
     7
  5
49E
 10
4.7
 20
7.0
 30
0.0
 11
3.4
 21
7.0
 31
0.0
  0
LINE
  8
WIRING
  6
CONTINUOUS
 62
     7
  5
49F
 10
3.4
 20
7.0
 30
0.0
 11
3.4
 21
7.7
 31
0.0
  0
LINE
  8
WIRING
  6
CONTINUOUS
 62
     7
  5
4A0
 10
5.249998
 20
8.65
 30
0.0
 11
5.299997
 21
8.549999
 31
0.0
  0
LINE
  8
WIRING
  6
CONTINUOUS
 62
     7
  5
4A1
 10
5.299997
 20
8.549999
 30
0.0
 11
5.349996
 21
8.65
 31
0.0
  0
LINE
  8
WIRING
  6
CONTINUOUS
 62
     7
  5
4A2
 10
5.349996
 20
8.65
 30
0.0
 11
5.399999
 21
8.549999
 31
0.0
  0
LINE
  8
WIRING
  6
CONTINUOUS
 62
     7
  5
4A3
 10
5.399999
 20
8.549999
 30
0.0
 11
5.449998
 21
8.65
 31
0.0
  0
LINE
  8
WIRING
  6
CONTINUOUS
 62
     7
  5
4A4
 10
5.449998
 20
8.65
 30
0.0
 11
5.499998
 21
8.549999
 31
0.0
  0
LINE
  8
WIRING
  6
CONTINUOUS
 62
     7
  5
4A5
 10
5.499998
 20
8.549999
 30
0.0
 11
5.524995
 21
8.599999
 31
0.0
  0
LINE
  8
WIRING
  6
CONTINUOUS
 62
     7
  5
4A6
 10
5.524995
 20
8.599999
 30
0.0
 11
5.549997
 21
8.599999
 31
0.0
  0
LINE
  8
WIRING
  6
CONTINUOUS
 62
     7
  5
4A7
 10
5.249998
 20
8.65
 30
0.0
 11
5.224996
 21
8.599999
 31
0.0
  0
LINE
  8
WIRING
  6
CONTINUOUS
 62
     7
  5
4A8
 10
5.224996
 20
8.599999
 30
0.0
 11
5.099996
 21
8.599999
 31
0.0
  0
LINE
  8
WIRING
  6
CONTINUOUS
 62
     7
  5
4A9
 10
5.249998
 20
8.45
 30
0.0
 11
5.299997
 21
8.35
 31
0.0
  0
LINE
  8
WIRING
  6
CONTINUOUS
 62
     7
  5
4AA
 10
5.299997
 20
8.35
 30
0.0
 11
5.349996
 21
8.45
 31
0.0
  0
LINE
  8
WIRING
  6
CONTINUOUS
 62
     7
  5
4AB
 10
5.349996
 20
8.45
 30
0.0
 11
5.399999
 21
8.35
 31
0.0
  0
LINE
  8
WIRING
  6
CONTINUOUS
 62
     7
  5
4AC
 10
5.399999
 20
8.35
 30
0.0
 11
5.449998
 21
8.45
 31
0.0
  0
LINE
  8
WIRING
  6
CONTINUOUS
 62
     7
  5
4AD
 10
5.449998
 20
8.45
 30
0.0
 11
5.499998
 21
8.35
 31
0.0
  0
LINE
  8
WIRING
  6
CONTINUOUS
 62
     7
  5
4AE
 10
5.499998
 20
8.35
 30
0.0
 11
5.524995
 21
8.4
 31
0.0
  0
LINE
  8
WIRING
  6
CONTINUOUS
 62
     7
  5
4AF
 10
5.524995
 20
8.4
 30
0.0
 11
5.549997
 21
8.4
 31
0.0
  0
LINE
  8
WIRING
  6
CONTINUOUS
 62
     7
  5
4B0
 10
5.249998
 20
8.45
 30
0.0
 11
5.224996
 21
8.4
 31
0.0
  0
LINE
  8
WIRING
  6
CONTINUOUS
 62
     7
  5
4B1
 10
5.224996
 20
8.4
 30
0.0
 11
5.099996
 21
8.4
 31
0.0
  0
LINE
  8
WIRING
  6
CONTINUOUS
 62
     7
  5
4B2
 10
5.249998
 20
8.25
 30
0.0
 11
5.299997
 21
8.15
 31
0.0
  0
LINE
  8
WIRING
  6
CONTINUOUS
 62
     7
  5
4B3
 10
5.299997
 20
8.15
 30
0.0
 11
5.349996
 21
8.25
 31
0.0
  0
LINE
  8
WIRING
  6
CONTINUOUS
 62
     7
  5
4B4
 10
5.349996
 20
8.25
 30
0.0
 11
5.399999
 21
8.15
 31
0.0
  0
LINE
  8
WIRING
  6
CONTINUOUS
 62
     7
  5
4B5
 10
5.399999
 20
8.15
 30
0.0
 11
5.449998
 21
8.25
 31
0.0
  0
LINE
  8
WIRING
  6
CONTINUOUS
 62
     7
  5
4B6
 10
5.449998
 20
8.25
 30
0.0
 11
5.499998
 21
8.15
 31
0.0
  0
LINE
  8
WIRING
  6
CONTINUOUS
 62
     7
  5
4B7
 10
5.499998
 20
8.15
 30
0.0
 11
5.524995
 21
8.2
 31
0.0
  0
LINE
  8
WIRING
  6
CONTINUOUS
 62
     7
  5
4B8
 10
5.524995
 20
8.2
 30
0.0
 11
5.549997
 21
8.2
 31
0.0
  0
LINE
  8
WIRING
  6
CONTINUOUS
 62
     7
  5
4B9
 10
5.249998
 20
8.25
 30
0.0
 11
5.224996
 21
8.2
 31
0.0
  0
LINE
  8
WIRING
  6
CONTINUOUS
 62
     7
  5
4BA
 10
5.224996
 20
8.2
 30
0.0
 11
5.099996
 21
8.2
 31
0.0
  0
LINE
  8
WIRING
  6
CONTINUOUS
 62
     7
  5
4BB
 10
5.549997
 20
8.4
 30
0.0
 11
5.599996
 21
8.4
 31
0.0
  0
LINE
  8
WIRING
  6
CONTINUOUS
 62
     7
  5
4BC
 10
5.549997
 20
8.2
 30
0.0
 11
5.599996
 21
8.2
 31
0.0
  0
LINE
  8
WIRING
  6
CONTINUOUS
 62
     7
  5
4BD
 10
5.099996
 20
8.6
 30
0.0
 11
5.099996
 21
8.7
 31
0.0
  0
LINE
  8
WIRING
  6
CONTINUOUS
 62
     7
  5
4BE
 10
5.099996
 20
8.2
 30
0.0
 11
5.099996
 21
8.6
 31
0.0
  0
LINE
  8
WIRING
  6
CONTINUOUS
 62
     7
  5
4BF
 10
5.55
 20
8.6
 30
0.0
 11
5.95
 21
8.6
 31
0.0
  0
LINE
  8
WIRING
  6
CONTINUOUS
 62
     7
  5
4C0
 10
5.6
 20
8.400001
 30
0.0
 11
5.95
 21
8.400001
 31
0.0
  0
LINE
  8
WIRING
  6
CONTINUOUS
 62
     7
  5
4C1
 10
5.6
 20
8.2
 30
0.0
 11
5.95
 21
8.2
 31
0.0
  0
LINE
  8
WIRING
  6
CONTINUOUS
 62
     7
  5
4C2
 10
5.95
 20
8.1
 30
0.0
 11
5.85
 21
8.1
 31
0.0
  0
LINE
  8
WIRING
  6
CONTINUOUS
 62
     7
  5
4C3
 10
5.95
 20
8.3
 30
0.0
 11
5.8
 21
8.3
 31
0.0
  0
LINE
  8
WIRING
  6
CONTINUOUS
 62
     7
  5
4C4
 10
5.95
 20
8.5
 30
0.0
 11
5.75
 21
8.5
 31
0.0
  0
LINE
  8
WIRING
  6
CONTINUOUS
 62
     7
  5
4C5
 10
5.0
 20
8.55
 30
0.0
 11
5.0
 21
7.6
 31
0.0
  0
LINE
  8
WIRING
  6
CONTINUOUS
 62
     7
  5
4C6
 10
4.95
 20
8.5
 30
0.0
 11
4.95
 21
7.6
 31
0.0
  0
LINE
  8
WIRING
  6
CONTINUOUS
 62
     7
  5
4C7
 10
4.9
 20
8.45
 30
0.0
 11
4.9
 21
7.6
 31
0.0
  0
LINE
  8
WIRING
  6
CONTINUOUS
 62
     7
  5
4C8
 10
4.85
 20
4.9
 30
0.0
 11
3.4
 21
4.9
 31
0.0
  0
LINE
  8
WIRING
  6
CONTINUOUS
 62
     7
  5
4C9
 10
4.9
 20
5.0
 30
0.0
 11
4.6
 21
5.0
 31
0.0
  0
LINE
  8
WIRING
  6
CONTINUOUS
 62
     7
  5
4CA
 10
4.95
 20
5.1
 30
0.0
 11
4.7
 21
5.1
 31
0.0
  0
LINE
  8
WIRING
  6
CONTINUOUS
 62
     7
  5
4CB
 10
4.95
 20
5.0
 30
0.0
 11
4.95
 21
5.1
 31
0.0
  0
LINE
  8
WIRING
  6
CONTINUOUS
 62
     7
  5
4CC
 10
7.35
 20
-0.65
 30
0.0
 11
4.85
 21
-0.65
 31
0.0
  0
LINE
  8
WIRING
  6
CONTINUOUS
 62
     7
  5
4CD
 10
4.85
 20
-0.65
 30
0.0
 11
4.85
 21
4.9
 31
0.0
  0
LINE
  8
WIRING
  6
CONTINUOUS
 62
     7
  5
4CE
 10
7.35
 20
-0.55
 30
0.0
 11
4.9
 21
-0.55
 31
0.0
  0
LINE
  8
WIRING
  6
CONTINUOUS
 62
     7
  5
4CF
 10
4.9
 20
-0.55
 30
0.0
 11
4.9
 21
5.0
 31
0.0
  0
LINE
  8
WIRING
  6
CONTINUOUS
 62
     7
  5
4D0
 10
7.349998
 20
-0.450001
 30
0.0
 11
4.95
 21
-0.450001
 31
0.0
  0
LINE
  8
WIRING
  6
CONTINUOUS
 62
     7
  5
4D1
 10
4.95
 20
-0.450001
 30
0.0
 11
4.95
 21
5.0
 31
0.0
  0
LINE
  8
WIRING
  6
CONTINUOUS
 62
     7
  5
4D2
 10
7.35
 20
-0.85
 30
0.0
 11
4.65
 21
-0.85
 31
0.0
  0
LINE
  8
WIRING
  6
CONTINUOUS
 62
     7
  5
4D3
 10
4.6
 20
2.1
 30
0.0
 11
3.4
 21
2.1
 31
0.0
  0
LINE
  8
WIRING
  6
CONTINUOUS
 62
     7
  5
4D4
 10
4.65
 20
-0.85
 30
0.0
 11
4.65
 21
2.1
 31
0.0
  0
LINE
  8
WIRING
  6
CONTINUOUS
 62
     7
  5
4D5
 10
4.6
 20
2.1
 30
0.0
 11
4.65
 21
2.1
 31
0.0
  0
LINE
  8
WIRING
  6
CONTINUOUS
 62
     7
  5
4D6
 10
4.9
 20
7.6
 30
0.0
 11
4.9
 21
5.3
 31
0.0
  0
LINE
  8
WIRING
  6
CONTINUOUS
 62
     7
  5
4D7
 10
4.9
 20
5.3
 30
0.0
 11
5.1
 21
5.3
 31
0.0
  0
LINE
  8
WIRING
  6
CONTINUOUS
 62
     7
  5
4D8
 10
4.95
 20
7.6
 30
0.0
 11
4.95
 21
5.35
 31
0.0
  0
LINE
  8
WIRING
  6
CONTINUOUS
 62
     7
  5
4D9
 10
4.95
 20
5.35
 30
0.0
 11
5.15
 21
5.35
 31
0.0
  0
LINE
  8
WIRING
  6
CONTINUOUS
 62
     7
  5
4DA
 10
5.0
 20
7.65
 30
0.0
 11
5.0
 21
5.4
 31
0.0
  0
LINE
  8
WIRING
  6
CONTINUOUS
 62
     7
  5
4DB
 10
5.0
 20
5.4
 30
0.0
 11
5.2
 21
5.4
 31
0.0
  0
LINE
  8
WIRING
  6
CONTINUOUS
 62
     7
  5
4DC
 10
5.15
 20
5.35
 30
0.0
 11
5.15
 21
-0.3
 31
0.0
  0
LINE
  8
WIRING
  6
CONTINUOUS
 62
     7
  5
4DD
 10
5.15
 20
-0.3
 30
0.0
 11
8.5
 21
-0.3
 31
0.0
  0
LINE
  8
WIRING
  6
CONTINUOUS
 62
     7
  5
4DE
 10
8.5
 20
-0.3
 30
0.0
 11
8.75
 21
-0.3
 31
0.0
  0
LINE
  8
WIRING
  6
CONTINUOUS
 62
     7
  5
4DF
 10
5.2
 20
5.4
 30
0.0
 11
5.2
 21
-0.35
 31
0.0
  0
LINE
  8
WIRING
  6
CONTINUOUS
 62
     7
  5
4E0
 10
5.2
 20
-0.35
 30
0.0
 11
8.7
 21
-0.35
 31
0.0
  0
LINE
  8
WIRING
  6
CONTINUOUS
 62
     7
  5
4E1
 10
5.75
 20
8.5
 30
0.0
 11
5.75
 21
-0.25
 31
0.0
  0
LINE
  8
WIRING
  6
CONTINUOUS
 62
     7
  5
4E2
 10
5.8
 20
8.3
 30
0.0
 11
5.8
 21
-0.2
 31
0.0
  0
LINE
  8
WIRING
  6
CONTINUOUS
 62
     7
  5
4E3
 10
5.85
 20
8.1
 30
0.0
 11
5.85
 21
-0.15
 31
0.0
  0
LINE
  8
WIRING
  6
CONTINUOUS
 62
     7
  5
4E4
 10
8.650001
 20
-0.15
 30
0.0
 11
5.85
 21
-0.15
 31
0.0
  0
LINE
  8
WIRING
  6
CONTINUOUS
 62
     7
  5
4E5
 10
8.6
 20
-0.2
 30
0.0
 11
5.8
 21
-0.2
 31
0.0
  0
LINE
  8
WIRING
  6
CONTINUOUS
 62
     7
  5
4E6
 10
8.55
 20
-0.25
 30
0.0
 11
5.75
 21
-0.25
 31
0.0
  0
LINE
  8
WIRING
  6
CONTINUOUS
 62
     7
  5
4E7
 10
5.1
 20
5.3
 30
0.0
 11
5.1
 21
-0.05
 31
0.0
  0
LINE
  8
WIRING
  6
CONTINUOUS
 62
     7
  5
4E8
 10
8.2
 20
-0.05
 30
0.0
 11
5.1
 21
-0.05
 31
0.0
  0
LINE
  8
WIRING
  6
CONTINUOUS
 62
     7
  5
4E9
 10
8.2
 20
-0.05
 30
0.0
 11
8.45
 21
-0.05
 31
0.0
  0
LINE
  8
WIRING
  6
CONTINUOUS
 62
     7
  5
4EA
 10
8.45
 20
-0.05
 30
0.0
 11
8.45
 21
-0.1
 31
0.0
  0
LINE
  8
WIRING
  6
CONTINUOUS
 62
     7
  5
4EB
 10
8.45
 20
-0.1
 30
0.0
 11
8.85
 21
-0.1
 31
0.0
  0
TEXT
  8
WIRING
  6
CONTINUOUS
 62
     7
  5
4EC
 10
7.5
 20
-1.2
 30
0.0
 40
0.05
  1
7 x 4.7K
  7
VC-TEXTSTYLE0
  0
LINE
  8
WIRING
  6
CONTINUOUS
 62
     7
  5
4ED
 10
6.8
 20
1.4
 30
0.0
 11
6.8
 21
1.1
 31
0.0
  0
LINE
  8
WIRING
  6
CONTINUOUS
 62
     7
  5
4EE
 10
6.8
 20
1.1
 30
0.0
 11
7.3
 21
1.1
 31
0.0
  0
LINE
  8
WIRING
  6
CONTINUOUS
 62
     7
  5
4EF
 10
7.3
 20
1.1
 30
0.0
 11
7.3
 21
1.4
 31
0.0
  0
LINE
  8
WIRING
  6
CONTINUOUS
 62
     7
  5
4F0
 10
7.3
 20
1.4
 30
0.0
 11
6.8
 21
1.4
 31
0.0
  0
LINE
  8
WIRING
  6
CONTINUOUS
 62
     7
  5
4F1
 10
6.65
 20
1.25
 30
0.0
 11
6.8
 21
1.25
 31
0.0
  0
LINE
  8
WIRING
  6
CONTINUOUS
 62
     7
  5
4F2
 10
7.05
 20
1.1
 30
0.0
 11
7.05
 21
0.9
 31
0.0
  0
LINE
  8
WIRING
  6
CONTINUOUS
 62
     7
  5
4F3
 10
7.3
 20
1.25
 30
0.0
 11
7.6
 21
1.25
 31
0.0
  0
LINE
  8
WIRING
  6
CONTINUOUS
 62
     7
  5
4F4
 10
7.45
 20
1.25
 30
0.0
 11
7.45
 21
0.95
 31
0.0
  0
LINE
  8
WIRING
  6
CONTINUOUS
 62
     7
  5
4F5
 10
7.45
 20
0.95
 30
0.0
 11
7.35
 21
0.95
 31
0.0
  0
LINE
  8
WIRING
  6
CONTINUOUS
 62
     7
  5
4F6
 10
7.45
 20
0.95
 30
0.0
 11
7.55
 21
0.95
 31
0.0
  0
LINE
  8
WIRING
  6
CONTINUOUS
 62
     7
  5
4F7
 10
7.35
 20
0.85
 30
0.0
 11
7.55
 21
0.85
 31
0.0
  0
LINE
  8
WIRING
  6
CONTINUOUS
 62
     7
  5
4F8
 10
7.45
 20
0.85
 30
0.0
 11
7.45
 21
0.6
 31
0.0
  0
LINE
  8
WIRING
  6
CONTINUOUS
 62
     7
  5
4F9
 10
7.45
 20
0.6
 30
0.0
 11
7.4
 21
0.6
 31
0.0
  0
LINE
  8
WIRING
  6
CONTINUOUS
 62
     7
  5
4FA
 10
7.4
 20
0.6
 30
0.0
 11
7.45
 21
0.5
 31
0.0
  0
LINE
  8
WIRING
  6
CONTINUOUS
 62
     7
  5
4FB
 10
7.45
 20
0.5
 30
0.0
 11
7.5
 21
0.6
 31
0.0
  0
LINE
  8
WIRING
  6
CONTINUOUS
 62
     7
  5
4FC
 10
7.5
 20
0.6
 30
0.0
 11
7.45
 21
0.6
 31
0.0
  0
LINE
  8
WIRING
  6
CONTINUOUS
 62
     7
  5
4FD
 10
6.8
 20
2.55
 30
0.0
 11
6.8
 21
2.25
 31
0.0
  0
LINE
  8
WIRING
  6
CONTINUOUS
 62
     7
  5
4FE
 10
6.8
 20
2.25
 30
0.0
 11
7.3
 21
2.25
 31
0.0
  0
LINE
  8
WIRING
  6
CONTINUOUS
 62
     7
  5
4FF
 10
7.3
 20
2.25
 30
0.0
 11
7.3
 21
2.55
 31
0.0
  0
LINE
  8
WIRING
  6
CONTINUOUS
 62
     7
  5
500
 10
7.3
 20
2.55
 30
0.0
 11
6.8
 21
2.55
 31
0.0
  0
LINE
  8
WIRING
  6
CONTINUOUS
 62
     7
  5
501
 10
6.65
 20
2.4
 30
0.0
 11
6.8
 21
2.4
 31
0.0
  0
LINE
  8
WIRING
  6
CONTINUOUS
 62
     7
  5
502
 10
7.3
 20
2.4
 30
0.0
 11
7.6
 21
2.4
 31
0.0
  0
LINE
  8
WIRING
  6
CONTINUOUS
 62
     7
  5
503
 10
7.45
 20
2.4
 30
0.0
 11
7.45
 21
2.1
 31
0.0
  0
LINE
  8
WIRING
  6
CONTINUOUS
 62
     7
  5
504
 10
6.8
 20
3.7
 30
0.0
 11
6.8
 21
3.4
 31
0.0
  0
LINE
  8
WIRING
  6
CONTINUOUS
 62
     7
  5
505
 10
6.8
 20
3.4
 30
0.0
 11
7.3
 21
3.4
 31
0.0
  0
LINE
  8
WIRING
  6
CONTINUOUS
 62
     7
  5
506
 10
7.3
 20
3.4
 30
0.0
 11
7.3
 21
3.7
 31
0.0
  0
LINE
  8
WIRING
  6
CONTINUOUS
 62
     7
  5
507
 10
7.3
 20
3.7
 30
0.0
 11
6.8
 21
3.7
 31
0.0
  0
LINE
  8
WIRING
  6
CONTINUOUS
 62
     7
  5
508
 10
6.65
 20
3.55
 30
0.0
 11
6.8
 21
3.55
 31
0.0
  0
LINE
  8
WIRING
  6
CONTINUOUS
 62
     7
  5
509
 10
7.05
 20
3.4
 30
0.0
 11
7.05
 21
3.2
 31
0.0
  0
LINE
  8
WIRING
  6
CONTINUOUS
 62
     7
  5
50A
 10
7.3
 20
3.55
 30
0.0
 11
7.6
 21
3.55
 31
0.0
  0
LINE
  8
WIRING
  6
CONTINUOUS
 62
     7
  5
50B
 10
7.45
 20
3.55
 30
0.0
 11
7.45
 21
3.25
 31
0.0
  0
LINE
  8
WIRING
  6
CONTINUOUS
 62
     7
  5
50C
 10
7.45
 20
3.25
 30
0.0
 11
7.35
 21
3.25
 31
0.0
  0
LINE
  8
WIRING
  6
CONTINUOUS
 62
     7
  5
50D
 10
7.45
 20
3.25
 30
0.0
 11
7.55
 21
3.25
 31
0.0
  0
LINE
  8
WIRING
  6
CONTINUOUS
 62
     7
  5
50E
 10
7.35
 20
3.15
 30
0.0
 11
7.55
 21
3.15
 31
0.0
  0
LINE
  8
WIRING
  6
CONTINUOUS
 62
     7
  5
50F
 10
7.45
 20
3.15
 30
0.0
 11
7.45
 21
2.9
 31
0.0
  0
LINE
  8
WIRING
  6
CONTINUOUS
 62
     7
  5
510
 10
7.45
 20
2.9
 30
0.0
 11
7.4
 21
2.9
 31
0.0
  0
LINE
  8
WIRING
  6
CONTINUOUS
 62
     7
  5
511
 10
7.4
 20
2.9
 30
0.0
 11
7.45
 21
2.8
 31
0.0
  0
LINE
  8
WIRING
  6
CONTINUOUS
 62
     7
  5
512
 10
7.45
 20
2.8
 30
0.0
 11
7.5
 21
2.9
 31
0.0
  0
LINE
  8
WIRING
  6
CONTINUOUS
 62
     7
  5
513
 10
7.5
 20
2.9
 30
0.0
 11
7.45
 21
2.9
 31
0.0
  0
LINE
  8
WIRING
  6
CONTINUOUS
 62
     7
  5
514
 10
6.6
 20
3.55
 30
0.0
 11
6.6
 21
2.4
 31
0.0
  0
LINE
  8
WIRING
  6
CONTINUOUS
 62
     7
  5
515
 10
6.65
 20
2.4
 30
0.0
 11
6.6
 21
2.4
 31
0.0
  0
LINE
  8
WIRING
  6
CONTINUOUS
 62
     7
  5
516
 10
6.6
 20
2.4
 30
0.0
 11
6.6
 21
2.65
 31
0.0
  0
LINE
  8
WIRING
  6
CONTINUOUS
 62
     7
  5
517
 10
6.6
 20
2.4
 30
0.0
 11
6.6
 21
1.25
 31
0.0
  0
LINE
  8
WIRING
  6
CONTINUOUS
 62
     7
  5
518
 10
6.6
 20
3.55
 30
0.0
 11
6.7
 21
3.55
 31
0.0
  0
LINE
  8
WIRING
  6
CONTINUOUS
 62
     7
  5
519
 10
6.6
 20
1.25
 30
0.0
 11
6.7
 21
1.25
 31
0.0
  0
LINE
  8
WIRING
  6
CONTINUOUS
 62
     7
  5
51A
 10
6.6
 20
3.55
 30
0.0
 11
6.6
 21
4.2
 31
0.0
  0
TEXT
  8
WIRING
  6
CONTINUOUS
 62
     7
  5
51B
 10
7.65
 20
3.65
 30
0.0
 40
0.05
  1
+5.6 for LMC660 op amps
  7
VC-TEXTSTYLE0
  0
TEXT
  8
WIRING
  6
CONTINUOUS
 62
     7
  5
51C
 10
7.65
 20
3.55
 30
0.0
 40
0.05
  1
(Pin 4 - V+, Pin 11 - Gnd)
  7
VC-TEXTSTYLE0
  0
TEXT
  8
WIRING
  6
CONTINUOUS
 62
     7
  5
51D
 10
6.85
 20
3.5
 30
0.0
 40
0.05
  1
In
  7
VC-TEXTSTYLE0
  0
TEXT
  8
WIRING
  6
CONTINUOUS
 62
     7
  5
51E
 10
6.95
 20
3.4
 30
0.0
 40
0.05
  1
Gnd
  7
VC-TEXTSTYLE0
  0
TEXT
  8
WIRING
  6
CONTINUOUS
 62
     7
  5
51F
 10
7.100001
 20
3.5
 30
0.0
 40
0.05
  1
Out
  7
VC-TEXTSTYLE0
  0
TEXT
  8
WIRING
  6
CONTINUOUS
 62
     7
  5
520
 10
6.9
 20
3.6
 30
0.0
 40
0.05
  1
78L05
  7
VC-TEXTSTYLE0
  0
TEXT
  8
WIRING
  6
CONTINUOUS
 62
     7
  5
521
 10
6.9
 20
2.45
 30
0.0
 40
0.05
  1
78L05
  7
VC-TEXTSTYLE0
  0
TEXT
  8
WIRING
  6
CONTINUOUS
 62
     7
  5
522
 10
6.9
 20
2.35
 30
0.0
 40
0.05
  1
In  Out
  7
VC-TEXTSTYLE0
  0
TEXT
  8
WIRING
  6
CONTINUOUS
 62
     7
  5
523
 10
6.9
 20
2.25
 30
0.0
 40
0.05
  1
  Gnd
  7
VC-TEXTSTYLE0
  0
TEXT
  8
WIRING
  6
CONTINUOUS
 62
     7
  5
524
 10
7.65
 20
2.45
 30
0.0
 40
0.05
  1
+5 for Micro side of
  7
VC-TEXTSTYLE0
  0
TEXT
  8
WIRING
  6
CONTINUOUS
 62
     7
  5
525
 10
7.65
 20
2.35
 30
0.0
 40
0.05
  1
opto-isolators
  7
VC-TEXTSTYLE0
  0
TEXT
  8
WIRING
  6
CONTINUOUS
 62
     7
  5
526
 10
6.85
 20
1.3
 30
0.0
 40
0.05
  1
  7808
  7
VC-TEXTSTYLE0
  0
TEXT
  8
WIRING
  6
CONTINUOUS
 62
     7
  5
527
 10
6.85
 20
1.2
 30
0.0
 40
0.05
  1
In   Out
  7
VC-TEXTSTYLE0
  0
TEXT
  8
WIRING
  6
CONTINUOUS
 62
     7
  5
528
 10
6.85
 20
1.1
 30
0.0
 40
0.05
  1
   Gnd
  7
VC-TEXTSTYLE0
  0
TEXT
  8
WIRING
  6
CONTINUOUS
 62
     7
  5
529
 10
7.65
 20
1.3
 30
0.0
 40
0.05
  1
+8V for Micro-440
  7
VC-TEXTSTYLE0
  0
TEXT
  8
WIRING
  6
CONTINUOUS
 62
     7
  5
52A
 10
7.65
 20
1.2
 30
0.0
 40
0.05
  1
controller
  7
VC-TEXTSTYLE0
  0
LINE
  8
WIRING
  6
CONTINUOUS
 62
     7
  5
52B
 10
8.400001
 20
0.3
 30
0.0
 11
7.6
 21
0.3
 31
0.0
  0
LINE
  8
WIRING
  6
CONTINUOUS
 62
     7
  5
52C
 10
7.6
 20
0.3
 30
0.0
 11
7.6
 21
1.25
 31
0.0
  0
LINE
  8
WIRING
  6
CONTINUOUS
 62
     7
  5
52D
 10
6.6
 20
4.2
 30
0.0
 11
6.6
 21
4.5
 31
0.0
  0
LINE
  8
WIRING
  6
CONTINUOUS
 62
     7
  5
52E
 10
6.6
 20
4.5
 30
0.0
 11
7.15
 21
4.5
 31
0.0
  0
LINE
  8
WIRING
  6
CONTINUOUS
 62
     7
  5
52F
 10
7.15
 20
4.5
 30
0.0
 11
7.15
 21
4.6
 31
0.0
  0
LINE
  8
WIRING
  6
CONTINUOUS
 62
     7
  5
530
 10
7.15
 20
4.6
 30
0.0
 11
7.25
 21
4.5
 31
0.0
  0
LINE
  8
WIRING
  6
CONTINUOUS
 62
     7
  5
531
 10
7.25
 20
4.5
 30
0.0
 11
7.15
 21
4.4
 31
0.0
  0
LINE
  8
WIRING
  6
CONTINUOUS
 62
     7
  5
532
 10
7.15
 20
4.4
 30
0.0
 11
7.15
 21
4.5
 31
0.0
  0
LINE
  8
WIRING
  6
CONTINUOUS
 62
     7
  5
533
 10
7.25
 20
4.5
 30
0.0
 11
7.25
 21
4.6
 31
0.0
  0
LINE
  8
WIRING
  6
CONTINUOUS
 62
     7
  5
534
 10
7.25
 20
4.5
 30
0.0
 11
7.25
 21
4.4
 31
0.0
  0
LINE
  8
WIRING
  6
CONTINUOUS
 62
     7
  5
535
 10
7.25
 20
4.5
 30
0.0
 11
8.8
 21
4.5
 31
0.0
  0
LINE
  8
COMPON
  6
CONTINUOUS
 62
     7
  5
536
 10
8.85
 20
5.950002
 30
0.0
 11
8.9
 21
5.925
 31
0.0
  0
LINE
  8
COMPON
  6
CONTINUOUS
 62
     7
  5
537
 10
8.9
 20
5.925
 30
0.0
 11
8.799999
 21
5.875001
 31
0.0
  0
LINE
  8
COMPON
  6
CONTINUOUS
 62
     7
  5
538
 10
8.799999
 20
5.875001
 30
0.0
 11
8.9
 21
5.825002
 31
0.0
  0
LINE
  8
COMPON
  6
CONTINUOUS
 62
     7
  5
539
 10
8.9
 20
5.825002
 30
0.0
 11
8.799999
 21
5.775002
 31
0.0
  0
LINE
  8
COMPON
  6
CONTINUOUS
 62
     7
  5
53A
 10
8.799999
 20
5.775002
 30
0.0
 11
8.9
 21
5.724999
 31
0.0
  0
LINE
  8
COMPON
  6
CONTINUOUS
 62
     7
  5
53B
 10
8.9
 20
5.724999
 30
0.0
 11
8.799999
 21
5.675
 31
0.0
  0
LINE
  8
COMPON
  6
CONTINUOUS
 62
     7
  5
53C
 10
8.799999
 20
5.675
 30
0.0
 11
8.85
 21
5.650002
 31
0.0
  0
LINE
  8
COMPON
  6
CONTINUOUS
 62
     7
  5
53D
 10
8.85
 20
5.650002
 30
0.0
 11
8.85
 21
5.599999
 31
0.0
  0
LINE
  8
WIRING
  6
CONTINUOUS
 62
     7
  5
53E
 10
8.85
 20
5.950002
 30
0.0
 11
8.85
 21
6.100001
 31
0.0
  0
LINE
  8
WIRING
  6
CONTINUOUS
 62
     7
  5
53F
 10
8.85
 20
5.6
 30
0.0
 11
8.85
 21
4.5
 31
0.0
  0
LINE
  8
WIRING
  6
CONTINUOUS
 62
     7
  5
540
 10
8.85
 20
4.5
 30
0.0
 11
8.8
 21
4.5
 31
0.0
  0
LINE
  8
WIRING
  6
CONTINUOUS
 62
     7
  5
541
 10
3.9
 20
9.85
 30
0.0
 11
3.9
 21
9.95
 31
0.0
  0
LINE
  8
WIRING
  6
CONTINUOUS
 62
     7
  5
542
 10
4.7
 20
8.35
 30
0.0
 11
4.7
 21
7.25
 31
0.0
  0
LINE
  8
WIRING
  6
CONTINUOUS
 62
     7
  5
543
 10
5.3
 20
3.9
 30
0.0
 11
5.3
 21
7.1
 31
0.0
  0
LINE
  8
WIRING
  6
CONTINUOUS
 62
     7
  5
544
 10
5.3
 20
7.1
 30
0.0
 11
3.6
 21
7.1
 31
0.0
  0
LINE
  8
WIRING
  6
CONTINUOUS
 62
     7
  5
545
 10
3.6
 20
7.1
 30
0.0
 11
3.6
 21
9.95
 31
0.0
  0
LINE
  8
WIRING
  6
CONTINUOUS
 62
     7
  5
546
 10
3.9
 20
9.95
 30
0.0
 11
5.45
 21
9.95
 31
0.0
  0
LINE
  8
WIRING
  6
CONTINUOUS
 62
     7
  5
547
 10
5.45
 20
9.95
 30
0.0
 11
5.45
 21
9.35
 31
0.0
  0
LINE
  8
WIRING
  6
CONTINUOUS
 62
     7
  5
548
 10
3.9
 20
9.3
 30
0.0
 11
3.9
 21
7.45
 31
0.0
  0
LINE
  8
WIRING
  6
CONTINUOUS
 62
     7
  5
549
 10
3.9
 20
7.45
 30
0.0
 11
5.5
 21
7.45
 31
0.0
  0
LINE
  8
WIRING
  6
CONTINUOUS
 62
     7
  5
54A
 10
8.7
 20
0.15
 30
0.0
 11
5.5
 21
0.15
 31
0.0
  0
LINE
  8
WIRING
  6
CONTINUOUS
 62
     7
  5
54B
 10
5.5
 20
7.45
 30
0.0
 11
5.5
 21
0.15
 31
0.0
  0
CIRCLE
  8
WIRING
  6
CONTINUOUS
 62
     7
  5
54C
 10
8.85
 20
1.8
 30
0.0
 40
0.025
  0
CIRCLE
  8
WIRING
  6
CONTINUOUS
 62
     7
  5
54D
 10
8.85
 20
1.65
 30
0.0
 40
0.025
  0
CIRCLE
  8
WIRING
  6
CONTINUOUS
 62
     7
  5
54E
 10
8.85
 20
1.5
 30
0.0
 40
0.025
  0
CIRCLE
  8
WIRING
  6
CONTINUOUS
 62
     7
  5
54F
 10
8.85
 20
1.35
 30
0.0
 40
0.025
  0
LINE
  8
WIRING
  6
CONTINUOUS
 62
     7
  5
550
 10
8.85
 20
1.65
 30
0.0
 11
8.75
 21
1.65
 31
0.0
  0
LINE
  8
WIRING
  6
CONTINUOUS
 62
     7
  5
551
 10
8.75
 20
1.65
 30
0.0
 11
8.75
 21
1.5
 31
0.0
  0
LINE
  8
WIRING
  6
CONTINUOUS
 62
     7
  5
552
 10
8.75
 20
1.5
 30
0.0
 11
8.85
 21
1.5
 31
0.0
  0
LINE
  8
WIRING
  6
CONTINUOUS
 62
     7
  5
553
 10
8.85
 20
1.5
 30
0.0
 11
8.75
 21
1.5
 31
0.0
  0
LINE
  8
WIRING
  6
CONTINUOUS
 62
     7
  5
554
 10
8.75
 20
1.5
 30
0.0
 11
8.75
 21
1.25
 31
0.0
  0
LINE
  8
WIRING
  6
CONTINUOUS
 62
     7
  5
555
 10
8.75
 20
1.25
 30
0.0
 11
8.7
 21
1.25
 31
0.0
  0
LINE
  8
WIRING
  6
CONTINUOUS
 62
     7
  5
556
 10
8.7
 20
1.25
 30
0.0
 11
8.75
 21
1.15
 31
0.0
  0
LINE
  8
WIRING
  6
CONTINUOUS
 62
     7
  5
557
 10
8.75
 20
1.15
 30
0.0
 11
8.8
 21
1.25
 31
0.0
  0
LINE
  8
WIRING
  6
CONTINUOUS
 62
     7
  5
558
 10
8.8
 20
1.25
 30
0.0
 11
8.75
 21
1.25
 31
0.0
  0
LINE
  8
WIRING
  6
CONTINUOUS
 62
     7
  5
559
 10
8.85
 20
1.35
 30
0.0
 11
8.650001
 21
1.35
 31
0.0
  0
LINE
  8
WIRING
  6
CONTINUOUS
 62
     7
  5
55A
 10
8.650001
 20
1.35
 30
0.0
 11
8.650001
 21
1.8
 31
0.0
  0
LINE
  8
WIRING
  6
CONTINUOUS
 62
     7
  5
55B
 10
8.650001
 20
1.8
 30
0.0
 11
8.85
 21
1.8
 31
0.0
  0
LINE
  8
WIRING
  6
CONTINUOUS
 62
     7
  5
55C
 10
6.6
 20
1.5
 30
0.0
 11
8.650001
 21
1.5
 31
0.0
  0
TEXT
  8
WIRING
  6
CONTINUOUS
 62
     7
  5
55D
 10
8.95
 20
1.75
 30
0.0
 40
0.05
  1
+12VDC
  7
VC-TEXTSTYLE0
  0
TEXT
  8
WIRING
  6
CONTINUOUS
 62
     7
  5
55E
 10
8.95
 20
1.55
 30
0.0
 40
0.05
  1
Ground
  7
VC-TEXTSTYLE0
  0
TEXT
  8
WIRING
  6
CONTINUOUS
 62
     7
  5
55F
 10
8.95
 20
1.35
 30
0.0
 40
0.05
  1
+12VDC
  7
VC-TEXTSTYLE0
  0
LINE
  8
WIRING
  6
CONTINUOUS
 62
     7
  5
560
 10
7.6
 20
2.4
 30
0.0
 11
7.6
 21
2.65
 31
0.0
  0
LINE
  8
WIRING
  6
CONTINUOUS
 62
     7
  5
561
 10
7.6
 20
2.65
 30
0.0
 11
5.3
 21
2.65
 31
0.0
  0
LINE
  8
WIRING
  6
CONTINUOUS
 62
     7
  5
562
 10
5.3
 20
2.65
 30
0.0
 11
5.3
 21
3.9
 31
0.0
  0
LINE
  8
WIRING
  6
CONTINUOUS
 62
     7
  5
563
 10
8.049999
 20
8.5
 30
0.0
 11
8.049999
 21
8.7
 31
0.0
  0
LINE
  8
WIRING
  6
CONTINUOUS
 62
     7
  5
564
 10
8.049999
 20
8.5
 30
0.0
 11
8.049999
 21
8.35
 31
0.0
  0
LINE
  8
WIRING
  6
CONTINUOUS
 62
     7
  5
565
 10
8.049999
 20
8.35
 30
0.0
 11
8.049999
 21
8.3
 31
0.0
  0
LINE
  8
WIRING
  6
CONTINUOUS
 62
     7
  5
566
 10
8.049999
 20
8.6
 30
0.0
 11
8.049999
 21
8.6
 31
0.0
  0
LINE
  8
WIRING
  6
CONTINUOUS
 62
     7
  5
567
 10
8.049999
 20
8.6
 30
0.0
 11
8.249998
 21
8.8
 31
0.0
  0
LINE
  8
WIRING
  6
CONTINUOUS
 62
     7
  5
568
 10
8.049999
 20
8.400001
 30
0.0
 11
8.156065
 21
8.293934
 31
0.0
  0
LINE
  8
WIRING
  6
CONTINUOUS
 62
     7
  5
569
 10
8.156065
 20
8.293934
 30
0.0
 11
8.191422
 21
8.329289
 31
0.0
  0
LINE
  8
WIRING
  6
CONTINUOUS
 62
     7
  5
56A
 10
8.156065
 20
8.293934
 30
0.0
 11
8.12071
 21
8.258578
 31
0.0
  0
LINE
  8
WIRING
  6
CONTINUOUS
 62
     7
  5
56B
 10
8.12071
 20
8.258578
 30
0.0
 11
8.226776
 21
8.223224
 31
0.0
  0
LINE
  8
WIRING
  6
CONTINUOUS
 62
     7
  5
56C
 10
8.226776
 20
8.223224
 30
0.0
 11
8.191422
 21
8.329289
 31
0.0
  0
LINE
  8
WIRING
  6
CONTINUOUS
 62
     7
  5
56D
 10
8.226776
 20
8.223224
 30
0.0
 11
8.297487
 21
8.152513
 31
0.0
  0
LINE
  8
WIRING
  6
CONTINUOUS
 62
     7
  5
56E
 10
8.299999
 20
8.150001
 30
0.0
 11
8.299999
 21
8.0
 31
0.0
  0
LINE
  8
WIRING
  6
CONTINUOUS
 62
     7
  5
56F
 10
8.299999
 20
8.0
 30
0.0
 11
8.25
 21
8.0
 31
0.0
  0
LINE
  8
WIRING
  6
CONTINUOUS
 62
     7
  5
570
 10
8.25
 20
8.0
 30
0.0
 11
8.299999
 21
7.900001
 31
0.0
  0
LINE
  8
WIRING
  6
CONTINUOUS
 62
     7
  5
571
 10
8.299999
 20
7.900001
 30
0.0
 11
8.35
 21
8.0
 31
0.0
  0
LINE
  8
WIRING
  6
CONTINUOUS
 62
     7
  5
572
 10
8.35
 20
8.0
 30
0.0
 11
8.299999
 21
8.0
 31
0.0
  0
LINE
  8
COMPON
  6
CONTINUOUS
 62
     7
  5
573
 10
7.7
 20
8.350001
 30
0.0
 11
7.75
 21
8.325
 31
0.0
  0
LINE
  8
COMPON
  6
CONTINUOUS
 62
     7
  5
574
 10
7.75
 20
8.325
 30
0.0
 11
7.649999
 21
8.275001
 31
0.0
  0
LINE
  8
COMPON
  6
CONTINUOUS
 62
     7
  5
575
 10
7.649999
 20
8.275001
 30
0.0
 11
7.75
 21
8.225001
 31
0.0
  0
LINE
  8
COMPON
  6
CONTINUOUS
 62
     7
  5
576
 10
7.75
 20
8.225001
 30
0.0
 11
7.649999
 21
8.175002
 31
0.0
  0
LINE
  8
COMPON
  6
CONTINUOUS
 62
     7
  5
577
 10
7.649999
 20
8.175002
 30
0.0
 11
7.75
 21
8.124999
 31
0.0
  0
LINE
  8
COMPON
  6
CONTINUOUS
 62
     7
  5
578
 10
7.75
 20
8.124999
 30
0.0
 11
7.649999
 21
8.075
 31
0.0
  0
LINE
  8
COMPON
  6
CONTINUOUS
 62
     7
  5
579
 10
7.649999
 20
8.075
 30
0.0
 11
7.7
 21
8.050002
 31
0.0
  0
LINE
  8
COMPON
  6
CONTINUOUS
 62
     7
  5
57A
 10
7.7
 20
8.050002
 30
0.0
 11
7.7
 21
7.999999
 31
0.0
  0
LINE
  8
WIRING
  6
CONTINUOUS
 62
     7
  5
57B
 10
7.7
 20
8.350001
 30
0.0
 11
7.7
 21
8.500001
 31
0.0
  0
LINE
  8
WIRING
  6
CONTINUOUS
 62
     7
  5
57C
 10
7.699999
 20
8.05
 30
0.0
 11
7.699999
 21
7.900001
 31
0.0
  0
LINE
  8
WIRING
  6
CONTINUOUS
 62
     7
  5
57D
 10
7.699999
 20
7.900001
 30
0.0
 11
7.65
 21
7.900001
 31
0.0
  0
LINE
  8
WIRING
  6
CONTINUOUS
 62
     7
  5
57E
 10
7.65
 20
7.900001
 30
0.0
 11
7.699999
 21
7.8
 31
0.0
  0
LINE
  8
WIRING
  6
CONTINUOUS
 62
     7
  5
57F
 10
7.699999
 20
7.8
 30
0.0
 11
7.75
 21
7.900001
 31
0.0
  0
LINE
  8
WIRING
  6
CONTINUOUS
 62
     7
  5
580
 10
7.75
 20
7.900001
 30
0.0
 11
7.699999
 21
7.900001
 31
0.0
  0
LINE
  8
WIRING
  6
CONTINUOUS
 62
     7
  5
581
 10
8.25
 20
8.8
 30
0.0
 11
8.6
 21
8.8
 31
0.0
  0
LINE
  8
WIRING
  6
CONTINUOUS
 62
     7
  5
582
 10
8.299999
 20
8.1
 30
0.0
 11
8.6
 21
8.1
 31
0.0
  0
TEXT
  8
WIRING
  6
CONTINUOUS
 62
     7
  5
583
 10
7.75
 20
8.0
 30
0.0
 40
0.05
  1
100K
  7
VC-TEXTSTYLE0
  0
TEXT
  8
WIRING
  6
CONTINUOUS
 62
     7
  5
584
 10
8.1
 20
8.55
 30
0.0
 40
0.05
  1
2N2222A
  7
VC-TEXTSTYLE0
  0
LINE
  8
WIRING
  6
CONTINUOUS
 62
     7
  5
585
 10
8.049999
 20
7.400001
 30
0.0
 11
8.049999
 21
7.6
 31
0.0
  0
LINE
  8
WIRING
  6
CONTINUOUS
 62
     7
  5
586
 10
8.049999
 20
7.400001
 30
0.0
 11
8.049999
 21
7.250001
 31
0.0
  0
LINE
  8
WIRING
  6
CONTINUOUS
 62
     7
  5
587
 10
8.049999
 20
7.250001
 30
0.0
 11
8.049999
 21
7.200001
 31
0.0
  0
LINE
  8
WIRING
  6
CONTINUOUS
 62
     7
  5
588
 10
8.049999
 20
7.500001
 30
0.0
 11
8.049999
 21
7.500001
 31
0.0
  0
LINE
  8
WIRING
  6
CONTINUOUS
 62
     7
  5
589
 10
8.049999
 20
7.500001
 30
0.0
 11
8.249998
 21
7.700001
 31
0.0
  0
LINE
  8
WIRING
  6
CONTINUOUS
 62
     7
  5
58A
 10
8.049999
 20
7.300001
 30
0.0
 11
8.156065
 21
7.193934
 31
0.0
  0
LINE
  8
WIRING
  6
CONTINUOUS
 62
     7
  5
58B
 10
8.156065
 20
7.193934
 30
0.0
 11
8.191422
 21
7.22929
 31
0.0
  0
LINE
  8
WIRING
  6
CONTINUOUS
 62
     7
  5
58C
 10
8.156065
 20
7.193934
 30
0.0
 11
8.12071
 21
7.158579
 31
0.0
  0
LINE
  8
WIRING
  6
CONTINUOUS
 62
     7
  5
58D
 10
8.12071
 20
7.158579
 30
0.0
 11
8.226776
 21
7.123224
 31
0.0
  0
LINE
  8
WIRING
  6
CONTINUOUS
 62
     7
  5
58E
 10
8.226776
 20
7.123224
 30
0.0
 11
8.191422
 21
7.22929
 31
0.0
  0
LINE
  8
WIRING
  6
CONTINUOUS
 62
     7
  5
58F
 10
8.226776
 20
7.123224
 30
0.0
 11
8.297487
 21
7.052513
 31
0.0
  0
LINE
  8
WIRING
  6
CONTINUOUS
 62
     7
  5
590
 10
8.299999
 20
7.050001
 30
0.0
 11
8.299999
 21
6.900001
 31
0.0
  0
LINE
  8
WIRING
  6
CONTINUOUS
 62
     7
  5
591
 10
8.299999
 20
6.900001
 30
0.0
 11
8.25
 21
6.900001
 31
0.0
  0
LINE
  8
WIRING
  6
CONTINUOUS
 62
     7
  5
592
 10
8.25
 20
6.900001
 30
0.0
 11
8.299999
 21
6.800001
 31
0.0
  0
LINE
  8
WIRING
  6
CONTINUOUS
 62
     7
  5
593
 10
8.299999
 20
6.800001
 30
0.0
 11
8.35
 21
6.900001
 31
0.0
  0
LINE
  8
WIRING
  6
CONTINUOUS
 62
     7
  5
594
 10
8.35
 20
6.900001
 30
0.0
 11
8.299999
 21
6.900001
 31
0.0
  0
LINE
  8
WIRING
  6
CONTINUOUS
 62
     7
  5
595
 10
8.25
 20
7.700001
 30
0.0
 11
8.6
 21
7.700001
 31
0.0
  0
TEXT
  8
WIRING
  6
CONTINUOUS
 62
     7
  5
596
 10
8.1
 20
7.450001
 30
0.0
 40
0.05
  1
2N2222A
  7
VC-TEXTSTYLE0
  0
LINE
  8
WIRING
  6
CONTINUOUS
 62
     7
  5
597
 10
8.05
 20
7.4
 30
0.0
 11
7.45
 21
7.4
 31
0.0
  0
LINE
  8
WIRING
  6
CONTINUOUS
 62
     7
  5
598
 10
8.6
 20
6.45
 30
0.0
 11
8.299999
 21
6.45
 31
0.0
  0
CIRCLE
  8
WIRING
  6
CONTINUOUS
 62
     7
  5
599
 10
8.299999
 20
6.45
 30
0.0
 40
0.02
  0
LINE
  8
WIRING
  6
CONTINUOUS
 62
     7
  5
59A
 10
8.299999
 20
6.45
 30
0.0
 11
7.949999
 21
6.5
 31
0.0
  0
LINE
  8
WIRING
  6
CONTINUOUS
 62
     7
  5
59B
 10
8.0
 20
6.5
 30
0.0
 11
7.949999
 21
6.55
 31
0.0
  0
LINE
  8
WIRING
  6
CONTINUOUS
 62
     7
  5
59C
 10
7.949999
 20
6.55
 30
0.0
 11
8.049999
 21
6.55
 31
0.0
  0
LINE
  8
WIRING
  6
CONTINUOUS
 62
     7
  5
59D
 10
8.049999
 20
6.55
 30
0.0
 11
8.0
 21
6.5
 31
0.0
  0
LINE
  8
WIRING
  6
CONTINUOUS
 62
     7
  5
59E
 10
8.0
 20
6.55
 30
0.0
 11
8.0
 21
6.6
 31
0.0
  0
LINE
  8
WIRING
  6
CONTINUOUS
 62
     7
  5
59F
 10
8.0
 20
6.6
 30
0.0
 11
8.6
 21
6.6
 31
0.0
  0
LINE
  8
WIRING
  6
CONTINUOUS
 62
     7
  5
5A0
 10
8.0
 20
6.400001
 30
0.0
 11
7.949999
 21
6.35
 31
0.0
  0
LINE
  8
WIRING
  6
CONTINUOUS
 62
     7
  5
5A1
 10
7.949999
 20
6.35
 30
0.0
 11
8.049999
 21
6.35
 31
0.0
  0
LINE
  8
WIRING
  6
CONTINUOUS
 62
     7
  5
5A2
 10
8.049999
 20
6.35
 30
0.0
 11
8.0
 21
6.400001
 31
0.0
  0
LINE
  8
WIRING
  6
CONTINUOUS
 62
     7
  5
5A3
 10
8.0
 20
6.35
 30
0.0
 11
8.0
 21
6.300001
 31
0.0
  0
LINE
  8
WIRING
  6
CONTINUOUS
 62
     7
  5
5A4
 10
8.0
 20
6.3
 30
0.0
 11
8.6
 21
6.3
 31
0.0
  0
CIRCLE
  8
WIRING
  6
CONTINUOUS
 62
     7
  5
5A5
 10
8.900001
 20
7.4
 30
0.0
 40
0.025
  0
CIRCLE
  8
WIRING
  6
CONTINUOUS
 62
     7
  5
5A6
 10
8.900001
 20
7.3
 30
0.0
 40
0.025
  0
CIRCLE
  8
WIRING
  6
CONTINUOUS
 62
     7
  5
5A7
 10
8.900001
 20
7.2
 30
0.0
 40
0.025
  0
CIRCLE
  8
WIRING
  6
CONTINUOUS
 62
     7
  5
5A8
 10
8.900001
 20
7.1
 30
0.0
 40
0.025
  0
CIRCLE
  8
WIRING
  6
CONTINUOUS
 62
     7
  5
5A9
 10
8.900001
 20
7.0
 30
0.0
 40
0.025
  0
CIRCLE
  8
WIRING
  6
CONTINUOUS
 62
     7
  5
5AA
 10
8.900001
 20
6.900001
 30
0.0
 40
0.025
  0
TEXT
  8
WIRING
  6
CONTINUOUS
 62
     7
  5
5AB
 10
8.95
 20
7.5
 30
0.0
 40
0.05
  1
Command
  7
VC-TEXTSTYLE0
  0
LINE
  8
WIRING
  6
CONTINUOUS
 62
     7
  5
5AC
 10
8.6
 20
8.8
 30
0.0
 11
8.900001
 21
8.8
 31
0.0
  0
LINE
  8
WIRING
  6
CONTINUOUS
 62
     7
  5
5AD
 10
8.900001
 20
8.8
 30
0.0
 11
8.900001
 21
7.4
 31
0.0
  0
LINE
  8
WIRING
  6
CONTINUOUS
 62
     7
  5
5AE
 10
8.6
 20
8.1
 30
0.0
 11
8.8
 21
8.1
 31
0.0
  0
LINE
  8
WIRING
  6
CONTINUOUS
 62
     7
  5
5AF
 10
8.8
 20
8.1
 30
0.0
 11
8.8
 21
7.3
 31
0.0
  0
LINE
  8
WIRING
  6
CONTINUOUS
 62
     7
  5
5B0
 10
8.8
 20
7.3
 30
0.0
 11
8.900001
 21
7.3
 31
0.0
  0
LINE
  8
WIRING
  6
CONTINUOUS
 62
     7
  5
5B1
 10
8.6
 20
7.7
 30
0.0
 11
8.7
 21
7.7
 31
0.0
  0
LINE
  8
WIRING
  6
CONTINUOUS
 62
     7
  5
5B2
 10
8.7
 20
7.7
 30
0.0
 11
8.7
 21
7.2
 31
0.0
  0
LINE
  8
WIRING
  6
CONTINUOUS
 62
     7
  5
5B3
 10
8.7
 20
7.2
 30
0.0
 11
8.900001
 21
7.2
 31
0.0
  0
LINE
  8
WIRING
  6
CONTINUOUS
 62
     7
  5
5B4
 10
8.8
 20
7.1
 30
0.0
 11
8.900001
 21
7.1
 31
0.0
  0
LINE
  8
WIRING
  6
CONTINUOUS
 62
     7
  5
5B5
 10
8.8
 20
7.1
 30
0.0
 11
8.7
 21
7.1
 31
0.0
  0
LINE
  8
WIRING
  6
CONTINUOUS
 62
     7
  5
5B6
 10
8.7
 20
7.1
 30
0.0
 11
8.7
 21
6.6
 31
0.0
  0
LINE
  8
WIRING
  6
CONTINUOUS
 62
     7
  5
5B7
 10
8.7
 20
6.6
 30
0.0
 11
8.6
 21
6.6
 31
0.0
  0
LINE
  8
WIRING
  6
CONTINUOUS
 62
     7
  5
5B8
 10
8.900001
 20
7.0
 30
0.0
 11
8.8
 21
7.0
 31
0.0
  0
LINE
  8
WIRING
  6
CONTINUOUS
 62
     7
  5
5B9
 10
8.8
 20
7.0
 30
0.0
 11
8.8
 21
6.45
 31
0.0
  0
LINE
  8
WIRING
  6
CONTINUOUS
 62
     7
  5
5BA
 10
8.8
 20
6.45
 30
0.0
 11
8.6
 21
6.45
 31
0.0
  0
LINE
  8
WIRING
  6
CONTINUOUS
 62
     7
  5
5BB
 10
8.6
 20
6.3
 30
0.0
 11
8.900001
 21
6.3
 31
0.0
  0
LINE
  8
WIRING
  6
CONTINUOUS
 62
     7
  5
5BC
 10
8.900001
 20
6.3
 30
0.0
 11
8.900001
 21
6.9
 31
0.0
  0
LINE
  8
WIRING
  6
CONTINUOUS
 62
     7
  5
5BD
 10
8.85
 20
7.45
 30
0.0
 11
8.95
 21
7.45
 31
0.0
  0
LINE
  8
WIRING
  6
CONTINUOUS
 62
     7
  5
5BE
 10
8.95
 20
7.45
 30
0.0
 11
8.95
 21
6.85
 31
0.0
  0
LINE
  8
WIRING
  6
CONTINUOUS
 62
     7
  5
5BF
 10
8.95
 20
6.85
 30
0.0
 11
8.85
 21
6.85
 31
0.0
  0
LINE
  8
WIRING
  6
CONTINUOUS
 62
     7
  5
5C0
 10
8.85
 20
6.85
 30
0.0
 11
8.85
 21
7.45
 31
0.0
  0
LINE
  8
WIRING
  6
CONTINUOUS
 62
     7
  5
5C1
 10
8.8
 20
1.85
 30
0.0
 11
8.900001
 21
1.85
 31
0.0
  0
LINE
  8
WIRING
  6
CONTINUOUS
 62
     7
  5
5C2
 10
8.900001
 20
1.85
 30
0.0
 11
8.900001
 21
1.3
 31
0.0
  0
LINE
  8
WIRING
  6
CONTINUOUS
 62
     7
  5
5C3
 10
8.900001
 20
1.3
 30
0.0
 11
8.8
 21
1.3
 31
0.0
  0
LINE
  8
WIRING
  6
CONTINUOUS
 62
     7
  5
5C4
 10
8.8
 20
1.3
 30
0.0
 11
8.8
 21
1.85
 31
0.0
  0
CIRCLE
  8
WIRING
  6
CONTINUOUS
 62
     7
  5
5C5
 10
1.05
 20
7.05
 30
0.0
 40
0.025
  0
CIRCLE
  8
WIRING
  6
CONTINUOUS
 62
     7
  5
5C6
 10
1.05
 20
6.95
 30
0.0
 40
0.025
  0
CIRCLE
  8
WIRING
  6
CONTINUOUS
 62
     7
  5
5C7
 10
1.05
 20
6.85
 30
0.0
 40
0.025
  0
CIRCLE
  8
WIRING
  6
CONTINUOUS
 62
     7
  5
5C8
 10
1.05
 20
6.75
 30
0.0
 40
0.025
  0
CIRCLE
  8
WIRING
  6
CONTINUOUS
 62
     7
  5
5C9
 10
1.05
 20
6.650001
 30
0.0
 40
0.025
  0
CIRCLE
  8
WIRING
  6
CONTINUOUS
 62
     7
  5
5CA
 10
1.05
 20
6.550001
 30
0.0
 40
0.025
  0
CIRCLE
  8
WIRING
  6
CONTINUOUS
 62
     7
  5
5CB
 10
1.05
 20
6.450001
 30
0.0
 40
0.025
  0
CIRCLE
  8
WIRING
  6
CONTINUOUS
 62
     7
  5
5CC
 10
1.05
 20
6.350001
 30
0.0
 40
0.025
  0
CIRCLE
  8
WIRING
  6
CONTINUOUS
 62
     7
  5
5CD
 10
1.05
 20
6.250001
 30
0.0
 40
0.025
  0
CIRCLE
  8
WIRING
  6
CONTINUOUS
 62
     7
  5
5CE
 10
1.05
 20
6.150001
 30
0.0
 40
0.025
  0
CIRCLE
  8
WIRING
  6
CONTINUOUS
 62
     7
  5
5CF
 10
1.05
 20
6.050001
 30
0.0
 40
0.025
  0
CIRCLE
  8
WIRING
  6
CONTINUOUS
 62
     7
  5
5D0
 10
1.05
 20
5.950001
 30
0.0
 40
0.025
  0
LINE
  8
WIRING
  6
CONTINUOUS
 62
     7
  5
5D1
 10
1.05
 20
7.05
 30
0.0
 11
1.65
 21
7.05
 31
0.0
  0
LINE
  8
WIRING
  6
CONTINUOUS
 62
     7
  5
5D2
 10
1.65
 20
7.05
 30
0.0
 11
1.65
 21
6.9
 31
0.0
  0
LINE
  8
WIRING
  6
CONTINUOUS
 62
     7
  5
5D3
 10
1.35
 20
7.6
 30
0.0
 11
1.25
 21
7.6
 31
0.0
  0
LINE
  8
WIRING
  6
CONTINUOUS
 62
     7
  5
5D4
 10
1.25
 20
7.6
 30
0.0
 11
1.25
 21
6.95
 31
0.0
  0
LINE
  8
WIRING
  6
CONTINUOUS
 62
     7
  5
5D5
 10
1.25
 20
6.95
 30
0.0
 11
1.05
 21
6.95
 31
0.0
  0
LINE
  8
WIRING
  6
CONTINUOUS
 62
     7
  5
5D6
 10
2.25
 20
6.3
 30
0.0
 11
1.5
 21
6.3
 31
0.0
  0
LINE
  8
WIRING
  6
CONTINUOUS
 62
     7
  5
5D7
 10
1.5
 20
6.3
 30
0.0
 11
1.5
 21
6.85
 31
0.0
  0
LINE
  8
WIRING
  6
CONTINUOUS
 62
     7
  5
5D8
 10
1.5
 20
6.85
 30
0.0
 11
1.05
 21
6.85
 31
0.0
  0
LINE
  8
WIRING
  6
CONTINUOUS
 62
     7
  5
5D9
 10
1.05
 20
6.75
 30
0.0
 11
1.35
 21
6.75
 31
0.0
  0
LINE
  8
WIRING
  6
CONTINUOUS
 62
     7
  5
5DA
 10
1.35
 20
4.8
 30
0.0
 11
1.35
 21
6.65
 31
0.0
  0
LINE
  8
WIRING
  6
CONTINUOUS
 62
     7
  5
5DB
 10
1.35
 20
6.65
 30
0.0
 11
1.05
 21
6.65
 31
0.0
  0
LINE
  8
WIRING
  6
CONTINUOUS
 62
     7
  5
5DC
 10
2.3
 20
3.5
 30
0.0
 11
1.3
 21
3.5
 31
0.0
  0
LINE
  8
WIRING
  6
CONTINUOUS
 62
     7
  5
5DD
 10
1.3
 20
3.5
 30
0.0
 11
1.3
 21
6.55
 31
0.0
  0
LINE
  8
WIRING
  6
CONTINUOUS
 62
     7
  5
5DE
 10
1.3
 20
6.55
 30
0.0
 11
1.05
 21
6.55
 31
0.0
  0
LINE
  8
WIRING
  6
CONTINUOUS
 62
     7
  5
5DF
 10
1.05
 20
6.35
 30
0.0
 11
1.25
 21
6.35
 31
0.0
  0
LINE
  8
WIRING
  6
CONTINUOUS
 62
     7
  5
5E0
 10
1.25
 20
6.35
 30
0.0
 11
1.25
 21
2.0
 31
0.0
  0
LINE
  8
WIRING
  6
CONTINUOUS
 62
     7
  5
5E1
 10
1.25
 20
2.0
 30
0.0
 11
1.4
 21
2.0
 31
0.0
  0
LINE
  8
WIRING
  6
CONTINUOUS
 62
     7
  5
5E2
 10
2.25
 20
0.7
 30
0.0
 11
1.2
 21
0.7
 31
0.0
  0
LINE
  8
WIRING
  6
CONTINUOUS
 62
     7
  5
5E3
 10
1.2
 20
0.7
 30
0.0
 11
1.2
 21
6.25
 31
0.0
  0
LINE
  8
WIRING
  6
CONTINUOUS
 62
     7
  5
5E4
 10
1.2
 20
6.25
 30
0.0
 11
1.05
 21
6.25
 31
0.0
  0
LINE
  8
WIRING
  6
CONTINUOUS
 62
     7
  5
5E5
 10
1.05
 20
6.15
 30
0.0
 11
1.65
 21
6.15
 31
0.0
  0
LINE
  8
WIRING
  6
CONTINUOUS
 62
     7
  5
5E6
 10
1.65
 20
6.15
 30
0.0
 11
1.65
 21
5.75
 31
0.0
  0
LINE
  8
WIRING
  6
CONTINUOUS
 62
     7
  5
5E7
 10
1.65
 20
5.75
 30
0.0
 11
1.6
 21
5.75
 31
0.0
  0
LINE
  8
WIRING
  6
CONTINUOUS
 62
     7
  5
5E8
 10
1.6
 20
5.75
 30
0.0
 11
1.65
 21
5.6
 31
0.0
  0
LINE
  8
WIRING
  6
CONTINUOUS
 62
     7
  5
5E9
 10
1.65
 20
5.65
 30
0.0
 11
1.7
 21
5.75
 31
0.0
  0
LINE
  8
WIRING
  6
CONTINUOUS
 62
     7
  5
5EA
 10
1.7
 20
5.75
 30
0.0
 11
1.65
 21
5.75
 31
0.0
  0
LINE
  8
WIRING
  6
CONTINUOUS
 62
     7
  5
5EB
 10
1.65
 20
6.95
 30
0.0
 11
1.65
 21
6.15
 31
0.0
  0
LINE
  8
WIRING
  6
CONTINUOUS
 62
     7
  5
5EC
 10
1.3
 20
6.75
 30
0.0
 11
1.65
 21
6.75
 31
0.0
  0
LINE
  8
WIRING
  6
CONTINUOUS
 62
     7
  5
5ED
 10
1.05
 20
6.45
 30
0.0
 11
1.65
 21
6.45
 31
0.0
  0
LINE
  8
WIRING
  6
CONTINUOUS
 62
     7
  5
5EE
 10
1.05
 20
6.05
 30
0.0
 11
1.15
 21
6.05
 31
0.0
  0
LINE
  8
WIRING
  6
CONTINUOUS
 62
     7
  5
5EF
 10
1.15
 20
6.05
 30
0.0
 11
1.15
 21
-0.8
 31
0.0
  0
LINE
  8
WIRING
  6
CONTINUOUS
 62
     7
  5
5F0
 10
1.5
 20
-0.8
 30
0.0
 11
1.15
 21
-0.799999
 31
0.0
  0
LINE
  8
WIRING
  6
CONTINUOUS
 62
     7
  5
5F1
 10
1.05
 20
5.95
 30
0.0
 11
1.05
 21
5.5
 31
0.0
  0
LINE
  8
WIRING
  6
CONTINUOUS
 62
     7
  5
5F2
 10
1.1
 20
5.9
 30
0.0
 11
1.0
 21
5.9
 31
0.0
  0
LINE
  8
WIRING
  6
CONTINUOUS
 62
     7
  5
5F3
 10
1.0
 20
5.9
 30
0.0
 11
1.0
 21
7.1
 31
0.0
  0
LINE
  8
WIRING
  6
CONTINUOUS
 62
     7
  5
5F4
 10
1.0
 20
7.1
 30
0.0
 11
1.1
 21
7.1
 31
0.0
  0
LINE
  8
WIRING
  6
CONTINUOUS
 62
     7
  5
5F5
 10
1.1
 20
7.1
 30
0.0
 11
1.1
 21
5.9
 31
0.0
  0
TEXT
  8
WIRING
  6
CONTINUOUS
 62
     7
  5
5F6
 10
0.8
 20
7.15
 30
0.0
 40
0.05
  1
Analog
  7
VC-TEXTSTYLE0
  0
LINE
  8
COMPON
  6
CONTINUOUS
 62
     7
  5
5F7
 10
2.2
 20
9.7875
 30
0.0
 11
2.2
 21
9.75
 31
0.0
  0
LINE
  8
COMPON
  6
CONTINUOUS
 62
     7
  5
5F8
 10
2.2
 20
9.75
 30
0.0
 11
2.2
 21
9.7875
 31
0.0
  0
LINE
  8
COMPON
  6
CONTINUOUS
 62
     7
  5
5F9
 10
2.2
 20
9.775
 30
0.0
 11
2.225002
 21
9.825001
 31
0.0
  0
LINE
  8
COMPON
  6
CONTINUOUS
 62
     7
  5
5FA
 10
2.225002
 20
9.825001
 30
0.0
 11
2.175002
 21
9.825001
 31
0.0
  0
LINE
  8
COMPON
  6
CONTINUOUS
 62
     7
  5
5FB
 10
2.175002
 20
9.825001
 30
0.0
 11
2.2
 21
9.775
 31
0.0
  0
LINE
  8
COMPON
  6
CONTINUOUS
 62
     7
  5
5FC
 10
2.225002
 20
9.775
 30
0.0
 11
2.175002
 21
9.775
 31
0.0
  0
LINE
  8
COMPON
  6
CONTINUOUS
 62
     7
  5
5FD
 10
2.2
 20
9.825001
 30
0.0
 11
2.2
 21
9.85
 31
0.0
  0
LINE
  8
COMPON
  6
CONTINUOUS
 62
     7
  5
5FE
 10
2.2
 20
9.85
 30
0.0
 11
2.150001
 21
9.85
 31
0.0
  0
LINE
  8
COMPON
  6
CONTINUOUS
 62
     7
  5
5FF
 10
2.499999
 20
9.85
 30
0.0
 11
2.499999
 21
9.799999
 31
0.0
  0
LINE
  8
COMPON
  6
CONTINUOUS
 62
     7
  5
600
 10
2.499999
 20
9.799999
 30
0.0
 11
2.499999
 21
9.799999
 31
0.0
  0
LINE
  8
COMPON
  6
CONTINUOUS
 62
     7
  5
601
 10
2.499999
 20
9.799999
 30
0.0
 11
2.499999
 21
9.775
 31
0.0
  0
LINE
  8
COMPON
  6
CONTINUOUS
 62
     7
  5
602
 10
2.499999
 20
9.775
 30
0.0
 11
2.499999
 21
9.825001
 31
0.0
  0
LINE
  8
COMPON
  6
CONTINUOUS
 62
     7
  5
603
 10
2.499999
 20
9.825001
 30
0.0
 11
2.525001
 21
9.85
 31
0.0
  0
LINE
  8
COMPON
  6
CONTINUOUS
 62
     7
  5
604
 10
2.499999
 20
9.799999
 30
0.0
 11
2.525001
 21
9.775
 31
0.0
  0
LINE
  8
COMPON
  6
CONTINUOUS
 62
     7
  5
605
 10
2.504291
 20
9.786873
 30
0.0
 11
2.513129
 21
9.795712
 31
0.0
  0
LINE
  8
COMPON
  6
CONTINUOUS
 62
     7
  5
606
 10
2.513129
 20
9.795712
 30
0.0
 11
2.521968
 21
9.778034
 31
0.0
  0
LINE
  8
COMPON
  6
CONTINUOUS
 62
     7
  5
607
 10
2.521968
 20
9.778034
 30
0.0
 11
2.504291
 21
9.786873
 31
0.0
  0
LINE
  8
COMPON
  6
CONTINUOUS
 62
     7
  5
608
 10
2.500003
 20
9.8125
 30
0.0
 11
2.500003
 21
9.8125
 31
0.0
  0
LINE
  8
COMPON
  6
CONTINUOUS
 62
     7
  5
609
 10
2.525001
 20
9.85
 30
0.0
 11
2.575
 21
9.85
 31
0.0
  0
LINE
  8
COMPON
  6
CONTINUOUS
 62
     7
  5
60A
 10
2.525001
 20
9.799999
 30
0.0
 11
2.525001
 21
9.825001
 31
0.0
  0
LINE
  8
COMPON
  6
CONTINUOUS
 62
     7
  5
60B
 10
2.525001
 20
9.825001
 30
0.0
 11
2.525001
 21
9.75
 31
0.0
  0
LINE
  8
COMPON
  6
CONTINUOUS
 62
     7
  5
60C
 10
2.525001
 20
9.775
 30
0.0
 11
2.550002
 21
9.75
 31
0.0
  0
LINE
  8
COMPON
  6
CONTINUOUS
 62
     7
  5
60D
 10
2.525001
 20
9.799999
 30
0.0
 11
2.550002
 21
9.825001
 31
0.0
  0
LINE
  8
COMPON
  6
CONTINUOUS
 62
     7
  5
60E
 10
2.525131
 20
9.77487
 30
0.0
 11
2.525131
 21
9.77487
 31
0.0
  0
LINE
  8
COMPON
  6
CONTINUOUS
 62
     7
  5
60F
 10
2.525131
 20
9.77487
 30
0.0
 11
2.525131
 21
9.74987
 31
0.0
  0
LINE
  8
COMPON
  6
CONTINUOUS
 62
     7
  5
610
 10
2.525131
 20
9.77487
 30
0.0
 11
2.550132
 21
9.74987
 31
0.0
  0
LINE
  8
COMPON
  6
CONTINUOUS
 62
     7
  5
611
 10
2.529422
 20
9.761742
 30
0.0
 11
2.538261
 21
9.77058
 31
0.0
  0
LINE
  8
COMPON
  6
CONTINUOUS
 62
     7
  5
612
 10
2.538261
 20
9.77058
 30
0.0
 11
2.547099
 21
9.752903
 31
0.0
  0
LINE
  8
COMPON
  6
CONTINUOUS
 62
     7
  5
613
 10
2.547099
 20
9.752903
 30
0.0
 11
2.529422
 21
9.761742
 31
0.0
  0
LINE
  8
COMPON
  6
CONTINUOUS
 62
     7
  5
614
 10
2.550002
 20
9.825001
 30
0.0
 11
2.550002
 21
9.85
 31
0.0
  0
LINE
  8
COMPON
  6
CONTINUOUS
 62
     7
  5
615
 10
2.550002
 20
9.75
 30
0.0
 11
2.575
 21
9.75
 31
0.0
  0
LINE
  8
COMPON
  6
CONTINUOUS
 62
     7
  5
616
 10
2.350002
 20
9.8375
 30
0.0
 11
2.350002
 21
9.8375
 31
0.0
  0
LINE
  8
COMPON
  6
CONTINUOUS
 62
     7
  5
617
 10
2.350002
 20
9.8375
 30
0.0
 11
2.375003
 21
9.8125
 31
0.0
  0
LINE
  8
COMPON
  6
CONTINUOUS
 62
     7
  5
618
 10
2.354289
 20
9.824371
 30
0.0
 11
2.363128
 21
9.83321
 31
0.0
  0
LINE
  8
COMPON
  6
CONTINUOUS
 62
     7
  5
619
 10
2.363128
 20
9.83321
 30
0.0
 11
2.371967
 21
9.815533
 31
0.0
  0
LINE
  8
COMPON
  6
CONTINUOUS
 62
     7
  5
61A
 10
2.371967
 20
9.815533
 30
0.0
 11
2.354289
 21
9.824371
 31
0.0
  0
LINE
  8
COMPON
  6
CONTINUOUS
 62
     7
  5
61B
 10
2.350002
 20
9.8375
 30
0.0
 11
2.337501
 21
9.85
 31
0.0
  0
LINE
  8
COMPON
  6
CONTINUOUS
 62
     7
  5
61C
 10
2.350002
 20
9.799999
 30
0.0
 11
2.350002
 21
9.799999
 31
0.0
  0
LINE
  8
COMPON
  6
CONTINUOUS
 62
     7
  5
61D
 10
2.350002
 20
9.799999
 30
0.0
 11
2.375003
 21
9.775
 31
0.0
  0
LINE
  8
COMPON
  6
CONTINUOUS
 62
     7
  5
61E
 10
2.354289
 20
9.786873
 30
0.0
 11
2.363128
 21
9.795712
 31
0.0
  0
LINE
  8
COMPON
  6
CONTINUOUS
 62
     7
  5
61F
 10
2.363128
 20
9.795712
 30
0.0
 11
2.371967
 21
9.778034
 31
0.0
  0
LINE
  8
COMPON
  6
CONTINUOUS
 62
     7
  5
620
 10
2.371967
 20
9.778034
 30
0.0
 11
2.354289
 21
9.786873
 31
0.0
  0
LINE
  8
COMPON
  6
CONTINUOUS
 62
     7
  5
621
 10
2.350002
 20
9.799999
 30
0.0
 11
2.337501
 21
9.8125
 31
0.0
  0
LINE
  8
COMPON
  6
CONTINUOUS
 62
     7
  5
622
 10
2.550002
 20
9.85
 30
0.0
 11
2.600002
 21
9.85
 31
0.0
  0
LINE
  8
COMPON
  6
CONTINUOUS
 62
     7
  5
623
 10
2.550002
 20
9.75
 30
0.0
 11
2.600002
 21
9.75
 31
0.0
  0
LINE
  8
COMPON
  6
CONTINUOUS
 62
     7
  5
624
 10
2.2
 20
9.75
 30
0.0
 11
2.150001
 21
9.75
 31
0.0
  0
LINE
  8
COMPON
  6
CONTINUOUS
 62
     7
  5
625
 10
2.150001
 20
9.85
 30
0.0
 11
2.100002
 21
9.85
 31
0.0
  0
LINE
  8
COMPON
  6
CONTINUOUS
 62
     7
  5
626
 10
2.150001
 20
9.75
 30
0.0
 11
2.100002
 21
9.75
 31
0.0
  0
LINE
  8
COMPON
  6
CONTINUOUS
 62
     7
  5
627
 10
2.100002
 20
9.85
 30
0.0
 11
2.000003
 21
9.85
 31
0.0
  0
LINE
  8
COMPON
  6
CONTINUOUS
 62
     7
  5
628
 10
2.100002
 20
9.75
 30
0.0
 11
2.000003
 21
9.75
 31
0.0
  0
LINE
  8
COMPON
  6
CONTINUOUS
 62
     7
  5
629
 10
2.600002
 20
9.85
 30
0.0
 11
2.7
 21
9.85
 31
0.0
  0
LINE
  8
COMPON
  6
CONTINUOUS
 62
     7
  5
62A
 10
2.600002
 20
9.75
 30
0.0
 11
2.7
 21
9.75
 31
0.0
  0
LINE
  8
COMPON
  6
CONTINUOUS
 62
     7
  5
62B
 10
2.100002
 20
9.950001
 30
0.0
 11
2.600002
 21
9.950001
 31
0.0
  0
LINE
  8
COMPON
  6
CONTINUOUS
 62
     7
  5
62C
 10
2.2
 20
9.5875
 30
0.0
 11
2.2
 21
9.549999
 31
0.0
  0
LINE
  8
COMPON
  6
CONTINUOUS
 62
     7
  5
62D
 10
2.2
 20
9.549999
 30
0.0
 11
2.2
 21
9.5875
 31
0.0
  0
LINE
  8
COMPON
  6
CONTINUOUS
 62
     7
  5
62E
 10
2.2
 20
9.575001
 30
0.0
 11
2.225002
 21
9.625
 31
0.0
  0
LINE
  8
COMPON
  6
CONTINUOUS
 62
     7
  5
62F
 10
2.225002
 20
9.625
 30
0.0
 11
2.175002
 21
9.625
 31
0.0
  0
LINE
  8
COMPON
  6
CONTINUOUS
 62
     7
  5
630
 10
2.175002
 20
9.625
 30
0.0
 11
2.2
 21
9.575001
 31
0.0
  0
LINE
  8
COMPON
  6
CONTINUOUS
 62
     7
  5
631
 10
2.225002
 20
9.575001
 30
0.0
 11
2.175002
 21
9.575001
 31
0.0
  0
LINE
  8
COMPON
  6
CONTINUOUS
 62
     7
  5
632
 10
2.2
 20
9.625
 30
0.0
 11
2.2
 21
9.65
 31
0.0
  0
LINE
  8
COMPON
  6
CONTINUOUS
 62
     7
  5
633
 10
2.2
 20
9.65
 30
0.0
 11
2.150001
 21
9.65
 31
0.0
  0
LINE
  8
COMPON
  6
CONTINUOUS
 62
     7
  5
634
 10
2.499999
 20
9.65
 30
0.0
 11
2.499999
 21
9.6
 31
0.0
  0
LINE
  8
COMPON
  6
CONTINUOUS
 62
     7
  5
635
 10
2.499999
 20
9.6
 30
0.0
 11
2.499999
 21
9.6
 31
0.0
  0
LINE
  8
COMPON
  6
CONTINUOUS
 62
     7
  5
636
 10
2.499999
 20
9.6
 30
0.0
 11
2.499999
 21
9.575001
 31
0.0
  0
LINE
  8
COMPON
  6
CONTINUOUS
 62
     7
  5
637
 10
2.499999
 20
9.575001
 30
0.0
 11
2.499999
 21
9.625
 31
0.0
  0
LINE
  8
COMPON
  6
CONTINUOUS
 62
     7
  5
638
 10
2.499999
 20
9.625
 30
0.0
 11
2.525001
 21
9.65
 31
0.0
  0
LINE
  8
COMPON
  6
CONTINUOUS
 62
     7
  5
639
 10
2.499999
 20
9.6
 30
0.0
 11
2.525001
 21
9.575001
 31
0.0
  0
LINE
  8
COMPON
  6
CONTINUOUS
 62
     7
  5
63A
 10
2.504291
 20
9.586872
 30
0.0
 11
2.513129
 21
9.595711
 31
0.0
  0
LINE
  8
COMPON
  6
CONTINUOUS
 62
     7
  5
63B
 10
2.513129
 20
9.595711
 30
0.0
 11
2.521968
 21
9.578033
 31
0.0
  0
LINE
  8
COMPON
  6
CONTINUOUS
 62
     7
  5
63C
 10
2.521968
 20
9.578033
 30
0.0
 11
2.504291
 21
9.586872
 31
0.0
  0
LINE
  8
COMPON
  6
CONTINUOUS
 62
     7
  5
63D
 10
2.500003
 20
9.612499
 30
0.0
 11
2.500003
 21
9.612499
 31
0.0
  0
LINE
  8
COMPON
  6
CONTINUOUS
 62
     7
  5
63E
 10
2.525001
 20
9.65
 30
0.0
 11
2.575
 21
9.65
 31
0.0
  0
LINE
  8
COMPON
  6
CONTINUOUS
 62
     7
  5
63F
 10
2.525001
 20
9.6
 30
0.0
 11
2.525001
 21
9.625
 31
0.0
  0
LINE
  8
COMPON
  6
CONTINUOUS
 62
     7
  5
640
 10
2.525001
 20
9.625
 30
0.0
 11
2.525001
 21
9.549999
 31
0.0
  0
LINE
  8
COMPON
  6
CONTINUOUS
 62
     7
  5
641
 10
2.525001
 20
9.575001
 30
0.0
 11
2.550002
 21
9.549999
 31
0.0
  0
LINE
  8
COMPON
  6
CONTINUOUS
 62
     7
  5
642
 10
2.525001
 20
9.6
 30
0.0
 11
2.550002
 21
9.625
 31
0.0
  0
LINE
  8
COMPON
  6
CONTINUOUS
 62
     7
  5
643
 10
2.525131
 20
9.574871
 30
0.0
 11
2.525131
 21
9.574871
 31
0.0
  0
LINE
  8
COMPON
  6
CONTINUOUS
 62
     7
  5
644
 10
2.525131
 20
9.574871
 30
0.0
 11
2.525131
 21
9.54987
 31
0.0
  0
LINE
  8
COMPON
  6
CONTINUOUS
 62
     7
  5
645
 10
2.525131
 20
9.574871
 30
0.0
 11
2.550132
 21
9.54987
 31
0.0
  0
LINE
  8
COMPON
  6
CONTINUOUS
 62
     7
  5
646
 10
2.529422
 20
9.561741
 30
0.0
 11
2.538261
 21
9.57058
 31
0.0
  0
LINE
  8
COMPON
  6
CONTINUOUS
 62
     7
  5
647
 10
2.538261
 20
9.57058
 30
0.0
 11
2.547099
 21
9.552902
 31
0.0
  0
LINE
  8
COMPON
  6
CONTINUOUS
 62
     7
  5
648
 10
2.547099
 20
9.552902
 30
0.0
 11
2.529422
 21
9.561741
 31
0.0
  0
LINE
  8
COMPON
  6
CONTINUOUS
 62
     7
  5
649
 10
2.550002
 20
9.625
 30
0.0
 11
2.550002
 21
9.65
 31
0.0
  0
LINE
  8
COMPON
  6
CONTINUOUS
 62
     7
  5
64A
 10
2.550002
 20
9.549999
 30
0.0
 11
2.575
 21
9.549999
 31
0.0
  0
LINE
  8
COMPON
  6
CONTINUOUS
 62
     7
  5
64B
 10
2.350002
 20
9.637501
 30
0.0
 11
2.350002
 21
9.637501
 31
0.0
  0
LINE
  8
COMPON
  6
CONTINUOUS
 62
     7
  5
64C
 10
2.350002
 20
9.637501
 30
0.0
 11
2.375003
 21
9.612499
 31
0.0
  0
LINE
  8
COMPON
  6
CONTINUOUS
 62
     7
  5
64D
 10
2.354289
 20
9.624372
 30
0.0
 11
2.363128
 21
9.633211
 31
0.0
  0
LINE
  8
COMPON
  6
CONTINUOUS
 62
     7
  5
64E
 10
2.363128
 20
9.633211
 30
0.0
 11
2.371967
 21
9.615532
 31
0.0
  0
LINE
  8
COMPON
  6
CONTINUOUS
 62
     7
  5
64F
 10
2.371967
 20
9.615532
 30
0.0
 11
2.354289
 21
9.624372
 31
0.0
  0
LINE
  8
COMPON
  6
CONTINUOUS
 62
     7
  5
650
 10
2.350002
 20
9.637501
 30
0.0
 11
2.337501
 21
9.65
 31
0.0
  0
LINE
  8
COMPON
  6
CONTINUOUS
 62
     7
  5
651
 10
2.350002
 20
9.6
 30
0.0
 11
2.350002
 21
9.6
 31
0.0
  0
LINE
  8
COMPON
  6
CONTINUOUS
 62
     7
  5
652
 10
2.350002
 20
9.6
 30
0.0
 11
2.375003
 21
9.575001
 31
0.0
  0
LINE
  8
COMPON
  6
CONTINUOUS
 62
     7
  5
653
 10
2.354289
 20
9.586872
 30
0.0
 11
2.363128
 21
9.595711
 31
0.0
  0
LINE
  8
COMPON
  6
CONTINUOUS
 62
     7
  5
654
 10
2.363128
 20
9.595711
 30
0.0
 11
2.371967
 21
9.578033
 31
0.0
  0
LINE
  8
COMPON
  6
CONTINUOUS
 62
     7
  5
655
 10
2.371967
 20
9.578033
 30
0.0
 11
2.354289
 21
9.586872
 31
0.0
  0
LINE
  8
COMPON
  6
CONTINUOUS
 62
     7
  5
656
 10
2.350002
 20
9.6
 30
0.0
 11
2.337501
 21
9.612499
 31
0.0
  0
LINE
  8
COMPON
  6
CONTINUOUS
 62
     7
  5
657
 10
2.550002
 20
9.65
 30
0.0
 11
2.600002
 21
9.65
 31
0.0
  0
LINE
  8
COMPON
  6
CONTINUOUS
 62
     7
  5
658
 10
2.550002
 20
9.549999
 30
0.0
 11
2.600002
 21
9.549999
 31
0.0
  0
LINE
  8
COMPON
  6
CONTINUOUS
 62
     7
  5
659
 10
2.2
 20
9.549999
 30
0.0
 11
2.150001
 21
9.550001
 31
0.0
  0
LINE
  8
COMPON
  6
CONTINUOUS
 62
     7
  5
65A
 10
2.150001
 20
9.65
 30
0.0
 11
2.100002
 21
9.65
 31
0.0
  0
LINE
  8
COMPON
  6
CONTINUOUS
 62
     7
  5
65B
 10
2.150001
 20
9.549999
 30
0.0
 11
2.100002
 21
9.549999
 31
0.0
  0
LINE
  8
COMPON
  6
CONTINUOUS
 62
     7
  5
65C
 10
2.100002
 20
9.65
 30
0.0
 11
2.000003
 21
9.65
 31
0.0
  0
LINE
  8
COMPON
  6
CONTINUOUS
 62
     7
  5
65D
 10
2.100002
 20
9.549999
 30
0.0
 11
2.000003
 21
9.549999
 31
0.0
  0
LINE
  8
COMPON
  6
CONTINUOUS
 62
     7
  5
65E
 10
2.600002
 20
9.65
 30
0.0
 11
2.7
 21
9.65
 31
0.0
  0
LINE
  8
COMPON
  6
CONTINUOUS
 62
     7
  5
65F
 10
2.600002
 20
9.549999
 30
0.0
 11
2.7
 21
9.549999
 31
0.0
  0
LINE
  8
COMPON
  6
CONTINUOUS
 62
     7
  5
660
 10
2.2
 20
9.387501
 30
0.0
 11
2.2
 21
9.35
 31
0.0
  0
LINE
  8
COMPON
  6
CONTINUOUS
 62
     7
  5
661
 10
2.2
 20
9.35
 30
0.0
 11
2.2
 21
9.387501
 31
0.0
  0
LINE
  8
COMPON
  6
CONTINUOUS
 62
     7
  5
662
 10
2.2
 20
9.375
 30
0.0
 11
2.225002
 21
9.424999
 31
0.0
  0
LINE
  8
COMPON
  6
CONTINUOUS
 62
     7
  5
663
 10
2.225002
 20
9.424999
 30
0.0
 11
2.175002
 21
9.424999
 31
0.0
  0
LINE
  8
COMPON
  6
CONTINUOUS
 62
     7
  5
664
 10
2.175002
 20
9.424999
 30
0.0
 11
2.2
 21
9.375
 31
0.0
  0
LINE
  8
COMPON
  6
CONTINUOUS
 62
     7
  5
665
 10
2.225002
 20
9.375
 30
0.0
 11
2.175002
 21
9.375
 31
0.0
  0
LINE
  8
COMPON
  6
CONTINUOUS
 62
     7
  5
666
 10
2.2
 20
9.424999
 30
0.0
 11
2.2
 21
9.450001
 31
0.0
  0
LINE
  8
COMPON
  6
CONTINUOUS
 62
     7
  5
667
 10
2.2
 20
9.450001
 30
0.0
 11
2.150001
 21
9.450001
 31
0.0
  0
LINE
  8
COMPON
  6
CONTINUOUS
 62
     7
  5
668
 10
2.499999
 20
9.450001
 30
0.0
 11
2.499999
 21
9.4
 31
0.0
  0
LINE
  8
COMPON
  6
CONTINUOUS
 62
     7
  5
669
 10
2.499999
 20
9.4
 30
0.0
 11
2.499999
 21
9.4
 31
0.0
  0
LINE
  8
COMPON
  6
CONTINUOUS
 62
     7
  5
66A
 10
2.499999
 20
9.4
 30
0.0
 11
2.499999
 21
9.375
 31
0.0
  0
LINE
  8
COMPON
  6
CONTINUOUS
 62
     7
  5
66B
 10
2.499999
 20
9.375
 30
0.0
 11
2.499999
 21
9.424999
 31
0.0
  0
LINE
  8
COMPON
  6
CONTINUOUS
 62
     7
  5
66C
 10
2.499999
 20
9.424999
 30
0.0
 11
2.525001
 21
9.450001
 31
0.0
  0
LINE
  8
COMPON
  6
CONTINUOUS
 62
     7
  5
66D
 10
2.499999
 20
9.4
 30
0.0
 11
2.525001
 21
9.375
 31
0.0
  0
LINE
  8
COMPON
  6
CONTINUOUS
 62
     7
  5
66E
 10
2.504291
 20
9.386871
 30
0.0
 11
2.513129
 21
9.39571
 31
0.0
  0
LINE
  8
COMPON
  6
CONTINUOUS
 62
     7
  5
66F
 10
2.513129
 20
9.39571
 30
0.0
 11
2.521968
 21
9.378033
 31
0.0
  0
LINE
  8
COMPON
  6
CONTINUOUS
 62
     7
  5
670
 10
2.521968
 20
9.378033
 30
0.0
 11
2.504291
 21
9.386871
 31
0.0
  0
LINE
  8
COMPON
  6
CONTINUOUS
 62
     7
  5
671
 10
2.500003
 20
9.4125
 30
0.0
 11
2.500003
 21
9.4125
 31
0.0
  0
LINE
  8
COMPON
  6
CONTINUOUS
 62
     7
  5
672
 10
2.525001
 20
9.450001
 30
0.0
 11
2.575
 21
9.450001
 31
0.0
  0
LINE
  8
COMPON
  6
CONTINUOUS
 62
     7
  5
673
 10
2.525001
 20
9.4
 30
0.0
 11
2.525001
 21
9.424999
 31
0.0
  0
LINE
  8
COMPON
  6
CONTINUOUS
 62
     7
  5
674
 10
2.525001
 20
9.424999
 30
0.0
 11
2.525001
 21
9.35
 31
0.0
  0
LINE
  8
COMPON
  6
CONTINUOUS
 62
     7
  5
675
 10
2.525001
 20
9.375
 30
0.0
 11
2.550002
 21
9.35
 31
0.0
  0
LINE
  8
COMPON
  6
CONTINUOUS
 62
     7
  5
676
 10
2.525001
 20
9.4
 30
0.0
 11
2.550002
 21
9.424999
 31
0.0
  0
LINE
  8
COMPON
  6
CONTINUOUS
 62
     7
  5
677
 10
2.525131
 20
9.37487
 30
0.0
 11
2.525131
 21
9.37487
 31
0.0
  0
LINE
  8
COMPON
  6
CONTINUOUS
 62
     7
  5
678
 10
2.525131
 20
9.37487
 30
0.0
 11
2.525131
 21
9.349869
 31
0.0
  0
LINE
  8
COMPON
  6
CONTINUOUS
 62
     7
  5
679
 10
2.525131
 20
9.37487
 30
0.0
 11
2.550132
 21
9.349869
 31
0.0
  0
LINE
  8
COMPON
  6
CONTINUOUS
 62
     7
  5
67A
 10
2.529422
 20
9.361742
 30
0.0
 11
2.538261
 21
9.370581
 31
0.0
  0
LINE
  8
COMPON
  6
CONTINUOUS
 62
     7
  5
67B
 10
2.538261
 20
9.370581
 30
0.0
 11
2.547099
 21
9.352903
 31
0.0
  0
LINE
  8
COMPON
  6
CONTINUOUS
 62
     7
  5
67C
 10
2.547099
 20
9.352903
 30
0.0
 11
2.529422
 21
9.361742
 31
0.0
  0
LINE
  8
COMPON
  6
CONTINUOUS
 62
     7
  5
67D
 10
2.550002
 20
9.424999
 30
0.0
 11
2.550002
 21
9.450001
 31
0.0
  0
LINE
  8
COMPON
  6
CONTINUOUS
 62
     7
  5
67E
 10
2.550002
 20
9.35
 30
0.0
 11
2.575
 21
9.35
 31
0.0
  0
LINE
  8
COMPON
  6
CONTINUOUS
 62
     7
  5
67F
 10
2.350002
 20
9.4375
 30
0.0
 11
2.350002
 21
9.4375
 31
0.0
  0
LINE
  8
COMPON
  6
CONTINUOUS
 62
     7
  5
680
 10
2.350002
 20
9.4375
 30
0.0
 11
2.375003
 21
9.4125
 31
0.0
  0
LINE
  8
COMPON
  6
CONTINUOUS
 62
     7
  5
681
 10
2.354289
 20
9.424372
 30
0.0
 11
2.363128
 21
9.43321
 31
0.0
  0
LINE
  8
COMPON
  6
CONTINUOUS
 62
     7
  5
682
 10
2.363128
 20
9.43321
 30
0.0
 11
2.371967
 21
9.415533
 31
0.0
  0
LINE
  8
COMPON
  6
CONTINUOUS
 62
     7
  5
683
 10
2.371967
 20
9.415533
 30
0.0
 11
2.354289
 21
9.424372
 31
0.0
  0
LINE
  8
COMPON
  6
CONTINUOUS
 62
     7
  5
684
 10
2.350002
 20
9.4375
 30
0.0
 11
2.337501
 21
9.450001
 31
0.0
  0
LINE
  8
COMPON
  6
CONTINUOUS
 62
     7
  5
685
 10
2.350002
 20
9.4
 30
0.0
 11
2.350002
 21
9.4
 31
0.0
  0
LINE
  8
COMPON
  6
CONTINUOUS
 62
     7
  5
686
 10
2.350002
 20
9.4
 30
0.0
 11
2.375003
 21
9.375
 31
0.0
  0
LINE
  8
COMPON
  6
CONTINUOUS
 62
     7
  5
687
 10
2.354289
 20
9.386871
 30
0.0
 11
2.363128
 21
9.39571
 31
0.0
  0
LINE
  8
COMPON
  6
CONTINUOUS
 62
     7
  5
688
 10
2.363128
 20
9.39571
 30
0.0
 11
2.371967
 21
9.378033
 31
0.0
  0
LINE
  8
COMPON
  6
CONTINUOUS
 62
     7
  5
689
 10
2.371967
 20
9.378033
 30
0.0
 11
2.354289
 21
9.386871
 31
0.0
  0
LINE
  8
COMPON
  6
CONTINUOUS
 62
     7
  5
68A
 10
2.350002
 20
9.4
 30
0.0
 11
2.337501
 21
9.4125
 31
0.0
  0
LINE
  8
COMPON
  6
CONTINUOUS
 62
     7
  5
68B
 10
2.550002
 20
9.450001
 30
0.0
 11
2.600002
 21
9.450001
 31
0.0
  0
LINE
  8
COMPON
  6
CONTINUOUS
 62
     7
  5
68C
 10
2.550002
 20
9.35
 30
0.0
 11
2.600002
 21
9.349998
 31
0.0
  0
LINE
  8
COMPON
  6
CONTINUOUS
 62
     7
  5
68D
 10
2.2
 20
9.35
 30
0.0
 11
2.150001
 21
9.35
 31
0.0
  0
LINE
  8
COMPON
  6
CONTINUOUS
 62
     7
  5
68E
 10
2.150001
 20
9.450001
 30
0.0
 11
2.100002
 21
9.450001
 31
0.0
  0
LINE
  8
COMPON
  6
CONTINUOUS
 62
     7
  5
68F
 10
2.150001
 20
9.349998
 30
0.0
 11
2.100002
 21
9.349998
 31
0.0
  0
LINE
  8
COMPON
  6
CONTINUOUS
 62
     7
  5
690
 10
2.100002
 20
9.450001
 30
0.0
 11
2.000003
 21
9.450001
 31
0.0
  0
LINE
  8
COMPON
  6
CONTINUOUS
 62
     7
  5
691
 10
2.100002
 20
9.349998
 30
0.0
 11
2.000003
 21
9.349998
 31
0.0
  0
LINE
  8
COMPON
  6
CONTINUOUS
 62
     7
  5
692
 10
2.600002
 20
9.450001
 30
0.0
 11
2.7
 21
9.450001
 31
0.0
  0
LINE
  8
COMPON
  6
CONTINUOUS
 62
     7
  5
693
 10
2.600002
 20
9.349998
 30
0.0
 11
2.7
 21
9.349998
 31
0.0
  0
LINE
  8
COMPON
  6
CONTINUOUS
 62
     7
  5
694
 10
2.2
 20
9.1875
 30
0.0
 11
2.2
 21
9.15
 31
0.0
  0
LINE
  8
COMPON
  6
CONTINUOUS
 62
     7
  5
695
 10
2.2
 20
9.15
 30
0.0
 11
2.2
 21
9.1875
 31
0.0
  0
LINE
  8
COMPON
  6
CONTINUOUS
 62
     7
  5
696
 10
2.2
 20
9.174999
 30
0.0
 11
2.225002
 21
9.224998
 31
0.0
  0
LINE
  8
COMPON
  6
CONTINUOUS
 62
     7
  5
697
 10
2.225002
 20
9.224998
 30
0.0
 11
2.175002
 21
9.224998
 31
0.0
  0
LINE
  8
COMPON
  6
CONTINUOUS
 62
     7
  5
698
 10
2.175002
 20
9.224998
 30
0.0
 11
2.2
 21
9.174999
 31
0.0
  0
LINE
  8
COMPON
  6
CONTINUOUS
 62
     7
  5
699
 10
2.225002
 20
9.174999
 30
0.0
 11
2.175002
 21
9.174999
 31
0.0
  0
LINE
  8
COMPON
  6
CONTINUOUS
 62
     7
  5
69A
 10
2.2
 20
9.224998
 30
0.0
 11
2.2
 21
9.25
 31
0.0
  0
LINE
  8
COMPON
  6
CONTINUOUS
 62
     7
  5
69B
 10
2.2
 20
9.25
 30
0.0
 11
2.150001
 21
9.25
 31
0.0
  0
LINE
  8
COMPON
  6
CONTINUOUS
 62
     7
  5
69C
 10
2.499999
 20
9.25
 30
0.0
 11
2.499999
 21
9.199999
 31
0.0
  0
LINE
  8
COMPON
  6
CONTINUOUS
 62
     7
  5
69D
 10
2.499999
 20
9.199999
 30
0.0
 11
2.499999
 21
9.199999
 31
0.0
  0
LINE
  8
COMPON
  6
CONTINUOUS
 62
     7
  5
69E
 10
2.499999
 20
9.199999
 30
0.0
 11
2.499999
 21
9.174999
 31
0.0
  0
LINE
  8
COMPON
  6
CONTINUOUS
 62
     7
  5
69F
 10
2.499999
 20
9.174999
 30
0.0
 11
2.499999
 21
9.224998
 31
0.0
  0
LINE
  8
COMPON
  6
CONTINUOUS
 62
     7
  5
6A0
 10
2.499999
 20
9.224998
 30
0.0
 11
2.525001
 21
9.25
 31
0.0
  0
LINE
  8
COMPON
  6
CONTINUOUS
 62
     7
  5
6A1
 10
2.499999
 20
9.199999
 30
0.0
 11
2.525001
 21
9.174999
 31
0.0
  0
LINE
  8
COMPON
  6
CONTINUOUS
 62
     7
  5
6A2
 10
2.504291
 20
9.186871
 30
0.0
 11
2.513129
 21
9.195709
 31
0.0
  0
LINE
  8
COMPON
  6
CONTINUOUS
 62
     7
  5
6A3
 10
2.513129
 20
9.195709
 30
0.0
 11
2.521968
 21
9.178032
 31
0.0
  0
LINE
  8
COMPON
  6
CONTINUOUS
 62
     7
  5
6A4
 10
2.521968
 20
9.178032
 30
0.0
 11
2.504291
 21
9.186871
 31
0.0
  0
LINE
  8
COMPON
  6
CONTINUOUS
 62
     7
  5
6A5
 10
2.500003
 20
9.2125
 30
0.0
 11
2.500003
 21
9.2125
 31
0.0
  0
LINE
  8
COMPON
  6
CONTINUOUS
 62
     7
  5
6A6
 10
2.525001
 20
9.25
 30
0.0
 11
2.575
 21
9.25
 31
0.0
  0
LINE
  8
COMPON
  6
CONTINUOUS
 62
     7
  5
6A7
 10
2.525001
 20
9.199999
 30
0.0
 11
2.525001
 21
9.224998
 31
0.0
  0
LINE
  8
COMPON
  6
CONTINUOUS
 62
     7
  5
6A8
 10
2.525001
 20
9.224998
 30
0.0
 11
2.525001
 21
9.15
 31
0.0
  0
LINE
  8
COMPON
  6
CONTINUOUS
 62
     7
  5
6A9
 10
2.525001
 20
9.174999
 30
0.0
 11
2.550002
 21
9.15
 31
0.0
  0
LINE
  8
COMPON
  6
CONTINUOUS
 62
     7
  5
6AA
 10
2.525001
 20
9.199999
 30
0.0
 11
2.550002
 21
9.224998
 31
0.0
  0
LINE
  8
COMPON
  6
CONTINUOUS
 62
     7
  5
6AB
 10
2.525131
 20
9.17487
 30
0.0
 11
2.525131
 21
9.17487
 31
0.0
  0
LINE
  8
COMPON
  6
CONTINUOUS
 62
     7
  5
6AC
 10
2.525131
 20
9.17487
 30
0.0
 11
2.525131
 21
9.14987
 31
0.0
  0
LINE
  8
COMPON
  6
CONTINUOUS
 62
     7
  5
6AD
 10
2.525131
 20
9.17487
 30
0.0
 11
2.550132
 21
9.14987
 31
0.0
  0
LINE
  8
COMPON
  6
CONTINUOUS
 62
     7
  5
6AE
 10
2.529422
 20
9.161741
 30
0.0
 11
2.538261
 21
9.17058
 31
0.0
  0
LINE
  8
COMPON
  6
CONTINUOUS
 62
     7
  5
6AF
 10
2.538261
 20
9.17058
 30
0.0
 11
2.547099
 21
9.152903
 31
0.0
  0
LINE
  8
COMPON
  6
CONTINUOUS
 62
     7
  5
6B0
 10
2.547099
 20
9.152903
 30
0.0
 11
2.529422
 21
9.161741
 31
0.0
  0
LINE
  8
COMPON
  6
CONTINUOUS
 62
     7
  5
6B1
 10
2.550002
 20
9.224998
 30
0.0
 11
2.550002
 21
9.25
 31
0.0
  0
LINE
  8
COMPON
  6
CONTINUOUS
 62
     7
  5
6B2
 10
2.550002
 20
9.15
 30
0.0
 11
2.575
 21
9.15
 31
0.0
  0
LINE
  8
COMPON
  6
CONTINUOUS
 62
     7
  5
6B3
 10
2.350002
 20
9.237499
 30
0.0
 11
2.350002
 21
9.237499
 31
0.0
  0
LINE
  8
COMPON
  6
CONTINUOUS
 62
     7
  5
6B4
 10
2.350002
 20
9.237499
 30
0.0
 11
2.375003
 21
9.2125
 31
0.0
  0
LINE
  8
COMPON
  6
CONTINUOUS
 62
     7
  5
6B5
 10
2.354289
 20
9.224371
 30
0.0
 11
2.363128
 21
9.23321
 31
0.0
  0
LINE
  8
COMPON
  6
CONTINUOUS
 62
     7
  5
6B6
 10
2.363128
 20
9.23321
 30
0.0
 11
2.371967
 21
9.215532
 31
0.0
  0
LINE
  8
COMPON
  6
CONTINUOUS
 62
     7
  5
6B7
 10
2.371967
 20
9.215532
 30
0.0
 11
2.354289
 21
9.224371
 31
0.0
  0
LINE
  8
COMPON
  6
CONTINUOUS
 62
     7
  5
6B8
 10
2.350002
 20
9.237499
 30
0.0
 11
2.337501
 21
9.25
 31
0.0
  0
LINE
  8
COMPON
  6
CONTINUOUS
 62
     7
  5
6B9
 10
2.350002
 20
9.199999
 30
0.0
 11
2.350002
 21
9.199999
 31
0.0
  0
LINE
  8
COMPON
  6
CONTINUOUS
 62
     7
  5
6BA
 10
2.350002
 20
9.199999
 30
0.0
 11
2.375003
 21
9.174999
 31
0.0
  0
LINE
  8
COMPON
  6
CONTINUOUS
 62
     7
  5
6BB
 10
2.354289
 20
9.186871
 30
0.0
 11
2.363128
 21
9.195709
 31
0.0
  0
LINE
  8
COMPON
  6
CONTINUOUS
 62
     7
  5
6BC
 10
2.363128
 20
9.195709
 30
0.0
 11
2.371967
 21
9.178032
 31
0.0
  0
LINE
  8
COMPON
  6
CONTINUOUS
 62
     7
  5
6BD
 10
2.371967
 20
9.178032
 30
0.0
 11
2.354289
 21
9.186871
 31
0.0
  0
LINE
  8
COMPON
  6
CONTINUOUS
 62
     7
  5
6BE
 10
2.350002
 20
9.199999
 30
0.0
 11
2.337501
 21
9.2125
 31
0.0
  0
LINE
  8
COMPON
  6
CONTINUOUS
 62
     7
  5
6BF
 10
2.550002
 20
9.25
 30
0.0
 11
2.600002
 21
9.25
 31
0.0
  0
LINE
  8
COMPON
  6
CONTINUOUS
 62
     7
  5
6C0
 10
2.550002
 20
9.15
 30
0.0
 11
2.600002
 21
9.15
 31
0.0
  0
LINE
  8
COMPON
  6
CONTINUOUS
 62
     7
  5
6C1
 10
2.2
 20
9.15
 30
0.0
 11
2.150001
 21
9.15
 31
0.0
  0
LINE
  8
COMPON
  6
CONTINUOUS
 62
     7
  5
6C2
 10
2.150001
 20
9.25
 30
0.0
 11
2.100002
 21
9.25
 31
0.0
  0
LINE
  8
COMPON
  6
CONTINUOUS
 62
     7
  5
6C3
 10
2.150001
 20
9.15
 30
0.0
 11
2.100002
 21
9.15
 31
0.0
  0
LINE
  8
COMPON
  6
CONTINUOUS
 62
     7
  5
6C4
 10
2.100002
 20
9.25
 30
0.0
 11
2.000003
 21
9.25
 31
0.0
  0
LINE
  8
COMPON
  6
CONTINUOUS
 62
     7
  5
6C5
 10
2.100002
 20
9.15
 30
0.0
 11
2.000003
 21
9.15
 31
0.0
  0
LINE
  8
COMPON
  6
CONTINUOUS
 62
     7
  5
6C6
 10
2.600002
 20
9.25
 30
0.0
 11
2.7
 21
9.25
 31
0.0
  0
LINE
  8
COMPON
  6
CONTINUOUS
 62
     7
  5
6C7
 10
2.600002
 20
9.15
 30
0.0
 11
2.7
 21
9.15
 31
0.0
  0
LINE
  8
COMPON
  6
CONTINUOUS
 62
     7
  5
6C8
 10
2.100002
 20
9.950001
 30
0.0
 11
2.100002
 21
9.049999
 31
0.0
  0
LINE
  8
COMPON
  6
CONTINUOUS
 62
     7
  5
6C9
 10
2.600002
 20
9.049999
 30
0.0
 11
2.600002
 21
9.950001
 31
0.0
  0
TEXT
  8
COMPON
  6
CONTINUOUS
 62
    11
  5
6CA
 10
2.600002
 20
9.9
 30
0.0
 40
0.05
  1
16
  7
VC-TEXTSTYLE0
  0
TEXT
  8
COMPON
  6
CONTINUOUS
 62
    11
  5
6CB
 10
2.650001
 20
9.075003
 30
0.0
 40
0.05
  1
9
  7
VC-TEXTSTYLE0
  0
TEXT
  8
COMPON
  6
CONTINUOUS
 62
    11
  5
6CC
 10
2.150001
 20
9.075003
 30
0.0
 40
0.05
  1
PS2502-4
  7
VC-TEXTSTYLE0
  0
LINE
  8
WIRING
  6
CONTINUOUS
 62
     7
  5
6CD
 10
2.1
 20
9.05
 30
0.0
 11
2.6
 21
9.05
 31
0.0
  0
LINE
  8
WIRING
  6
CONTINUOUS
 62
     7
  5
6CE
 10
2.799999
 20
9.85
 30
0.0
 11
2.7
 21
9.85
 31
0.0
  0
LINE
  8
WIRING
  6
CONTINUOUS
 62
     7
  5
6CF
 10
2.799999
 20
9.85
 30
0.0
 11
2.7
 21
9.85
 31
0.0
  0
LINE
  8
WIRING
  6
CONTINUOUS
 62
     7
  5
6D0
 10
3.2
 20
9.900001
 30
0.0
 11
3.249999
 21
9.8
 31
0.0
  0
LINE
  8
WIRING
  6
CONTINUOUS
 62
     7
  5
6D1
 10
3.249999
 20
9.8
 30
0.0
 11
3.3
 21
9.900001
 31
0.0
  0
LINE
  8
WIRING
  6
CONTINUOUS
 62
     7
  5
6D2
 10
3.3
 20
9.900001
 30
0.0
 11
3.350001
 21
9.8
 31
0.0
  0
LINE
  8
WIRING
  6
CONTINUOUS
 62
     7
  5
6D3
 10
3.350001
 20
9.8
 30
0.0
 11
3.4
 21
9.900001
 31
0.0
  0
LINE
  8
WIRING
  6
CONTINUOUS
 62
     7
  5
6D4
 10
3.4
 20
9.900001
 30
0.0
 11
3.45
 21
9.8
 31
0.0
  0
LINE
  8
WIRING
  6
CONTINUOUS
 62
     7
  5
6D5
 10
3.45
 20
9.8
 30
0.0
 11
3.474999
 21
9.85
 31
0.0
  0
LINE
  8
WIRING
  6
CONTINUOUS
 62
     7
  5
6D6
 10
3.474999
 20
9.85
 30
0.0
 11
3.500001
 21
9.85
 31
0.0
  0
LINE
  8
WIRING
  6
CONTINUOUS
 62
     7
  5
6D7
 10
3.2
 20
9.900001
 30
0.0
 11
3.175
 21
9.85
 31
0.0
  0
LINE
  8
WIRING
  6
CONTINUOUS
 62
     7
  5
6D8
 10
3.175
 20
9.85
 30
0.0
 11
3.149999
 21
9.85
 31
0.0
  0
LINE
  8
WIRING
  6
CONTINUOUS
 62
     7
  5
6D9
 10
3.499996
 20
9.850001
 30
0.0
 11
3.599996
 21
9.850001
 31
0.0
  0
LINE
  8
WIRING
  6
CONTINUOUS
 62
     7
  5
6DA
 10
3.499996
 20
9.850001
 30
0.0
 11
3.599996
 21
9.850001
 31
0.0
  0
LINE
  8
WIRING
  6
CONTINUOUS
 62
     7
  5
6DB
 10
3.499996
 20
9.850001
 30
0.0
 11
3.599996
 21
9.850001
 31
0.0
  0
LINE
  8
WIRING
  6
CONTINUOUS
 62
     7
  5
6DC
 10
3.499996
 20
9.850001
 30
0.0
 11
3.599996
 21
9.850001
 31
0.0
  0
LINE
  8
WIRING
  6
CONTINUOUS
 62
     7
  5
6DD
 10
3.2
 20
9.700001
 30
0.0
 11
3.249999
 21
9.6
 31
0.0
  0
LINE
  8
WIRING
  6
CONTINUOUS
 62
     7
  5
6DE
 10
3.249999
 20
9.6
 30
0.0
 11
3.3
 21
9.700001
 31
0.0
  0
LINE
  8
WIRING
  6
CONTINUOUS
 62
     7
  5
6DF
 10
3.3
 20
9.700001
 30
0.0
 11
3.350001
 21
9.6
 31
0.0
  0
LINE
  8
WIRING
  6
CONTINUOUS
 62
     7
  5
6E0
 10
3.350001
 20
9.6
 30
0.0
 11
3.4
 21
9.700001
 31
0.0
  0
LINE
  8
WIRING
  6
CONTINUOUS
 62
     7
  5
6E1
 10
3.4
 20
9.700001
 30
0.0
 11
3.45
 21
9.6
 31
0.0
  0
LINE
  8
WIRING
  6
CONTINUOUS
 62
     7
  5
6E2
 10
3.45
 20
9.6
 30
0.0
 11
3.474999
 21
9.650001
 31
0.0
  0
LINE
  8
WIRING
  6
CONTINUOUS
 62
     7
  5
6E3
 10
3.474999
 20
9.650001
 30
0.0
 11
3.500001
 21
9.650001
 31
0.0
  0
LINE
  8
WIRING
  6
CONTINUOUS
 62
     7
  5
6E4
 10
3.2
 20
9.700001
 30
0.0
 11
3.175
 21
9.650001
 31
0.0
  0
LINE
  8
WIRING
  6
CONTINUOUS
 62
     7
  5
6E5
 10
3.175
 20
9.650001
 30
0.0
 11
3.149999
 21
9.650001
 31
0.0
  0
LINE
  8
WIRING
  6
CONTINUOUS
 62
     7
  5
6E6
 10
3.499996
 20
9.650002
 30
0.0
 11
3.599996
 21
9.650002
 31
0.0
  0
LINE
  8
WIRING
  6
CONTINUOUS
 62
     7
  5
6E7
 10
3.499996
 20
9.650002
 30
0.0
 11
3.599996
 21
9.650002
 31
0.0
  0
LINE
  8
WIRING
  6
CONTINUOUS
 62
     7
  5
6E8
 10
3.499996
 20
9.650002
 30
0.0
 11
3.599996
 21
9.650002
 31
0.0
  0
LINE
  8
WIRING
  6
CONTINUOUS
 62
     7
  5
6E9
 10
3.499996
 20
9.650002
 30
0.0
 11
3.599996
 21
9.650002
 31
0.0
  0
LINE
  8
WIRING
  6
CONTINUOUS
 62
     7
  5
6EA
 10
3.2
 20
9.500001
 30
0.0
 11
3.249999
 21
9.400001
 31
0.0
  0
LINE
  8
WIRING
  6
CONTINUOUS
 62
     7
  5
6EB
 10
3.249999
 20
9.400001
 30
0.0
 11
3.3
 21
9.500001
 31
0.0
  0
LINE
  8
WIRING
  6
CONTINUOUS
 62
     7
  5
6EC
 10
3.3
 20
9.500001
 30
0.0
 11
3.350001
 21
9.400001
 31
0.0
  0
LINE
  8
WIRING
  6
CONTINUOUS
 62
     7
  5
6ED
 10
3.350001
 20
9.400001
 30
0.0
 11
3.4
 21
9.500001
 31
0.0
  0
LINE
  8
WIRING
  6
CONTINUOUS
 62
     7
  5
6EE
 10
3.4
 20
9.500001
 30
0.0
 11
3.45
 21
9.400001
 31
0.0
  0
LINE
  8
WIRING
  6
CONTINUOUS
 62
     7
  5
6EF
 10
3.45
 20
9.400001
 30
0.0
 11
3.474999
 21
9.450001
 31
0.0
  0
LINE
  8
WIRING
  6
CONTINUOUS
 62
     7
  5
6F0
 10
3.474999
 20
9.450001
 30
0.0
 11
3.500001
 21
9.450001
 31
0.0
  0
LINE
  8
WIRING
  6
CONTINUOUS
 62
     7
  5
6F1
 10
3.2
 20
9.500001
 30
0.0
 11
3.175
 21
9.450001
 31
0.0
  0
LINE
  8
WIRING
  6
CONTINUOUS
 62
     7
  5
6F2
 10
3.175
 20
9.450001
 30
0.0
 11
3.149999
 21
9.450001
 31
0.0
  0
LINE
  8
WIRING
  6
CONTINUOUS
 62
     7
  5
6F3
 10
3.499996
 20
9.450002
 30
0.0
 11
3.599996
 21
9.450002
 31
0.0
  0
LINE
  8
WIRING
  6
CONTINUOUS
 62
     7
  5
6F4
 10
3.499996
 20
9.450002
 30
0.0
 11
3.599996
 21
9.450002
 31
0.0
  0
LINE
  8
WIRING
  6
CONTINUOUS
 62
     7
  5
6F5
 10
3.499996
 20
9.450002
 30
0.0
 11
3.599996
 21
9.450002
 31
0.0
  0
LINE
  8
WIRING
  6
CONTINUOUS
 62
     7
  5
6F6
 10
3.499996
 20
9.450002
 30
0.0
 11
3.599996
 21
9.450002
 31
0.0
  0
LINE
  8
WIRING
  6
CONTINUOUS
 62
     7
  5
6F7
 10
2.7
 20
9.85
 30
0.0
 11
3.15
 21
9.85
 31
0.0
  0
LINE
  8
WIRING
  6
CONTINUOUS
 62
     7
  5
6F8
 10
2.7
 20
9.650001
 30
0.0
 11
3.15
 21
9.650001
 31
0.0
  0
LINE
  8
WIRING
  6
CONTINUOUS
 62
     7
  5
6F9
 10
2.7
 20
9.450001
 30
0.0
 11
3.15
 21
9.450001
 31
0.0
  0
LINE
  8
WIRING
  6
CONTINUOUS
 62
     7
  5
6FA
 10
2.7
 20
9.75
 30
0.0
 11
2.75
 21
9.75
 31
0.0
  0
LINE
  8
WIRING
  6
CONTINUOUS
 62
     7
  5
6FB
 10
2.75
 20
9.75
 30
0.0
 11
2.75
 21
8.900001
 31
0.0
  0
LINE
  8
WIRING
  6
CONTINUOUS
 62
     7
  5
6FC
 10
2.75
 20
8.900001
 30
0.0
 11
2.8
 21
8.900001
 31
0.0
  0
LINE
  8
WIRING
  6
CONTINUOUS
 62
     7
  5
6FD
 10
2.8
 20
8.900001
 30
0.0
 11
2.75
 21
8.8
 31
0.0
  0
LINE
  8
WIRING
  6
CONTINUOUS
 62
     7
  5
6FE
 10
2.75
 20
8.8
 30
0.0
 11
2.7
 21
8.900001
 31
0.0
  0
LINE
  8
WIRING
  6
CONTINUOUS
 62
     7
  5
6FF
 10
2.7
 20
8.900001
 30
0.0
 11
2.75
 21
8.900001
 31
0.0
  0
LINE
  8
WIRING
  6
CONTINUOUS
 62
     7
  5
700
 10
2.7
 20
9.55
 30
0.0
 11
2.75
 21
9.55
 31
0.0
  0
LINE
  8
WIRING
  6
CONTINUOUS
 62
     7
  5
701
 10
2.7
 20
9.35
 30
0.0
 11
2.75
 21
9.35
 31
0.0
  0
LINE
  8
WIRING
  6
CONTINUOUS
 62
     7
  5
702
 10
2.7
 20
9.150001
 30
0.0
 11
2.75
 21
9.150001
 31
0.0
  0
LINE
  8
WIRING
  6
CONTINUOUS
 62
     7
  5
703
 10
3.6
 20
9.45
 30
0.0
 11
3.6
 21
9.95
 31
0.0
  0
LINE
  8
WIRING
  6
CONTINUOUS
 62
     7
  5
704
 10
3.0
 20
9.85
 30
0.0
 11
3.0
 21
8.55
 31
0.0
  0
LINE
  8
WIRING
  6
CONTINUOUS
 62
     7
  5
705
 10
3.0
 20
8.55
 30
0.0
 11
5.0
 21
8.55
 31
0.0
  0
LINE
  8
WIRING
  6
CONTINUOUS
 62
     7
  5
706
 10
2.95
 20
9.650001
 30
0.0
 11
2.95
 21
8.5
 31
0.0
  0
LINE
  8
WIRING
  6
CONTINUOUS
 62
     7
  5
707
 10
2.95
 20
8.5
 30
0.0
 11
4.95
 21
8.5
 31
0.0
  0
LINE
  8
WIRING
  6
CONTINUOUS
 62
     7
  5
708
 10
2.9
 20
9.45
 30
0.0
 11
2.9
 21
8.45
 31
0.0
  0
LINE
  8
WIRING
  6
CONTINUOUS
 62
     7
  5
709
 10
2.9
 20
8.45
 30
0.0
 11
4.9
 21
8.45
 31
0.0
  0
LINE
  8
WIRING
  6
CONTINUOUS
 62
     7
  5
70A
 10
1.45
 20
8.35
 30
0.0
 11
4.7
 21
8.35
 31
0.0
  0
LINE
  8
WIRING
  6
CONTINUOUS
 62
     7
  5
70B
 10
3.6
 20
9.95
 30
0.0
 11
3.6
 21
9.95
 31
0.0
  0
LINE
  8
WIRING
  6
CONTINUOUS
 62
     7
  5
70C
 10
3.6
 20
9.95
 30
0.0
 11
3.9
 21
9.95
 31
0.0
  0
CIRCLE
  8
WIRING
  6
CONTINUOUS
 62
     7
  5
70D
 10
1.05
 20
9.950001
 30
0.0
 40
0.025
  0
CIRCLE
  8
WIRING
  6
CONTINUOUS
 62
     7
  5
70E
 10
1.05
 20
9.85
 30
0.0
 40
0.025
  0
CIRCLE
  8
WIRING
  6
CONTINUOUS
 62
     7
  5
70F
 10
1.05
 20
9.75
 30
0.0
 40
0.025
  0
CIRCLE
  8
WIRING
  6
CONTINUOUS
 62
     7
  5
710
 10
1.05
 20
9.65
 30
0.0
 40
0.025
  0
CIRCLE
  8
WIRING
  6
CONTINUOUS
 62
     7
  5
711
 10
1.05
 20
9.549999
 30
0.0
 40
0.025
  0
CIRCLE
  8
WIRING
  6
CONTINUOUS
 62
     7
  5
712
 10
1.05
 20
9.449999
 30
0.0
 40
0.025
  0
CIRCLE
  8
WIRING
  6
CONTINUOUS
 62
     7
  5
713
 10
1.05
 20
9.349998
 30
0.0
 40
0.025
  0
CIRCLE
  8
WIRING
  6
CONTINUOUS
 62
     7
  5
714
 10
1.05
 20
9.249998
 30
0.0
 40
0.025
  0
CIRCLE
  8
WIRING
  6
CONTINUOUS
 62
     7
  5
715
 10
1.05
 20
9.149998
 30
0.0
 40
0.025
  0
LINE
  8
WIRING
  6
CONTINUOUS
 62
     7
  5
716
 10
1.5
 20
9.150001
 30
0.0
 11
1.05
 21
9.150001
 31
0.0
  0
LINE
  8
WIRING
  6
CONTINUOUS
 62
     7
  5
717
 10
1.5
 20
9.150001
 30
0.0
 11
1.5
 21
9.35
 31
0.0
  0
LINE
  8
WIRING
  6
CONTINUOUS
 62
     7
  5
718
 10
1.45
 20
9.45
 30
0.0
 11
1.45
 21
9.25
 31
0.0
  0
LINE
  8
WIRING
  6
CONTINUOUS
 62
     7
  5
719
 10
1.45
 20
9.25
 30
0.0
 11
1.05
 21
9.25
 31
0.0
  0
LINE
  8
WIRING
  6
CONTINUOUS
 62
     7
  5
71A
 10
1.45
 20
9.55
 30
0.0
 11
1.4
 21
9.55
 31
0.0
  0
LINE
  8
WIRING
  6
CONTINUOUS
 62
     7
  5
71B
 10
1.4
 20
9.55
 30
0.0
 11
1.4
 21
9.45
 31
0.0
  0
LINE
  8
WIRING
  6
CONTINUOUS
 62
     7
  5
71C
 10
1.4
 20
9.45
 30
0.0
 11
1.05
 21
9.45
 31
0.0
  0
LINE
  8
WIRING
  6
CONTINUOUS
 62
     7
  5
71D
 10
1.35
 20
9.650001
 30
0.0
 11
1.35
 21
9.55
 31
0.0
  0
LINE
  8
WIRING
  6
CONTINUOUS
 62
     7
  5
71E
 10
1.35
 20
9.55
 30
0.0
 11
1.05
 21
9.55
 31
0.0
  0
LINE
  8
WIRING
  6
CONTINUOUS
 62
     7
  5
71F
 10
1.45
 20
9.75
 30
0.0
 11
1.05
 21
9.75
 31
0.0
  0
LINE
  8
WIRING
  6
CONTINUOUS
 62
     7
  5
720
 10
1.05
 20
9.95
 30
0.0
 11
1.3
 21
9.95
 31
0.0
  0
LINE
  8
WIRING
  6
CONTINUOUS
 62
     7
  5
721
 10
1.3
 20
9.95
 30
0.0
 11
1.3
 21
8.900001
 31
0.0
  0
LINE
  8
WIRING
  6
CONTINUOUS
 62
     7
  5
722
 10
1.05
 20
9.650001
 30
0.0
 11
1.3
 21
9.650001
 31
0.0
  0
LINE
  8
WIRING
  6
CONTINUOUS
 62
     7
  5
723
 10
1.05
 20
9.35
 30
0.0
 11
1.3
 21
9.35
 31
0.0
  0
LINE
  8
WIRING
  6
CONTINUOUS
 62
     7
  5
724
 10
1.0
 20
10.0
 30
0.0
 11
1.1
 21
10.0
 31
0.0
  0
LINE
  8
WIRING
  6
CONTINUOUS
 62
     7
  5
725
 10
1.1
 20
10.0
 30
0.0
 11
1.1
 21
9.1
 31
0.0
  0
LINE
  8
WIRING
  6
CONTINUOUS
 62
     7
  5
726
 10
1.1
 20
9.1
 30
0.0
 11
1.0
 21
9.1
 31
0.0
  0
LINE
  8
WIRING
  6
CONTINUOUS
 62
     7
  5
727
 10
1.0
 20
9.1
 30
0.0
 11
1.0
 21
10.0
 31
0.0
  0
TEXT
  8
WIRING
  6
CONTINUOUS
 62
     7
  5
728
 10
0.9
 20
9.0
 30
0.0
 40
0.05
  1
Status
  7
VC-TEXTSTYLE0
  0
TEXT
  8
WIRING
  6
CONTINUOUS
 62
     7
  5
729
 10
0.8
 20
7.0
 30
0.0
 40
0.05
  1
GND
  7
VC-TEXTSTYLE0
  0
TEXT
  8
WIRING
  6
CONTINUOUS
 62
     7
  5
72A
 10
0.8
 20
6.9
 30
0.0
 40
0.05
  1
CH1
  7
VC-TEXTSTYLE0
  0
TEXT
  8
WIRING
  6
CONTINUOUS
 62
     7
  5
72B
 10
0.8
 20
6.8
 30
0.0
 40
0.05
  1
CH2
  7
VC-TEXTSTYLE0
  0
TEXT
  8
WIRING
  6
CONTINUOUS
 62
     7
  5
72C
 10
0.8
 20
6.7
 30
0.0
 40
0.05
  1
GND
  7
VC-TEXTSTYLE0
  0
TEXT
  8
WIRING
  6
CONTINUOUS
 62
     7
  5
72D
 10
0.8
 20
6.6
 30
0.0
 40
0.05
  1
CH3
  7
VC-TEXTSTYLE0
  0
TEXT
  8
WIRING
  6
CONTINUOUS
 62
     7
  5
72E
 10
0.8
 20
6.5
 30
0.0
 40
0.05
  1
CH4
  7
VC-TEXTSTYLE0
  0
TEXT
  8
WIRING
  6
CONTINUOUS
 62
     7
  5
72F
 10
0.8
 20
6.400001
 30
0.0
 40
0.05
  1
GND
  7
VC-TEXTSTYLE0
  0
TEXT
  8
WIRING
  6
CONTINUOUS
 62
     7
  5
730
 10
0.8
 20
6.300001
 30
0.0
 40
0.05
  1
CH5
  7
VC-TEXTSTYLE0
  0
TEXT
  8
WIRING
  6
CONTINUOUS
 62
     7
  5
731
 10
0.8
 20
6.200001
 30
0.0
 40
0.05
  1
CH6
  7
VC-TEXTSTYLE0
  0
TEXT
  8
WIRING
  6
CONTINUOUS
 62
     7
  5
732
 10
0.8
 20
6.100001
 30
0.0
 40
0.05
  1
GND
  7
VC-TEXTSTYLE0
  0
TEXT
  8
WIRING
  6
CONTINUOUS
 62
     7
  5
733
 10
0.8
 20
6.000001
 30
0.0
 40
0.05
  1
CH7
  7
VC-TEXTSTYLE0
  0
TEXT
  8
WIRING
  6
CONTINUOUS
 62
     7
  5
734
 10
0.8
 20
5.900001
 30
0.0
 40
0.05
  1
+8V
  7
VC-TEXTSTYLE0
  0
LINE
  8
WIRING
  6
CONTINUOUS
 62
     7
  5
735
 10
1.05
 20
5.5
 30
0.0
 11
1.1
 21
5.55
 31
0.0
  0
LINE
  8
WIRING
  6
CONTINUOUS
 62
     7
  5
736
 10
8.049999
 20
8.5
 30
0.0
 11
7.699999
 21
8.5
 31
0.0
  0
LINE
  8
WIRING
  6
CONTINUOUS
 62
     7
  5
737
 10
6.900001
 20
8.549999
 30
0.0
 11
6.95
 21
8.449999
 31
0.0
  0
LINE
  8
WIRING
  6
CONTINUOUS
 62
     7
  5
738
 10
6.95
 20
8.449999
 30
0.0
 11
7.0
 21
8.549999
 31
0.0
  0
LINE
  8
WIRING
  6
CONTINUOUS
 62
     7
  5
739
 10
7.0
 20
8.549999
 30
0.0
 11
7.050003
 21
8.449999
 31
0.0
  0
LINE
  8
WIRING
  6
CONTINUOUS
 62
     7
  5
73A
 10
7.050003
 20
8.449999
 30
0.0
 11
7.100002
 21
8.549999
 31
0.0
  0
LINE
  8
WIRING
  6
CONTINUOUS
 62
     7
  5
73B
 10
7.100002
 20
8.549999
 30
0.0
 11
7.150001
 21
8.449999
 31
0.0
  0
LINE
  8
WIRING
  6
CONTINUOUS
 62
     7
  5
73C
 10
7.150001
 20
8.449999
 30
0.0
 11
7.174999
 21
8.499999
 31
0.0
  0
LINE
  8
WIRING
  6
CONTINUOUS
 62
     7
  5
73D
 10
7.174999
 20
8.499999
 30
0.0
 11
7.2
 21
8.499999
 31
0.0
  0
LINE
  8
WIRING
  6
CONTINUOUS
 62
     7
  5
73E
 10
6.900001
 20
8.549999
 30
0.0
 11
6.875
 21
8.499999
 31
0.0
  0
LINE
  8
WIRING
  6
CONTINUOUS
 62
     7
  5
73F
 10
6.900001
 20
8.349999
 30
0.0
 11
6.95
 21
8.25
 31
0.0
  0
LINE
  8
WIRING
  6
CONTINUOUS
 62
     7
  5
740
 10
6.95
 20
8.25
 30
0.0
 11
7.0
 21
8.349999
 31
0.0
  0
LINE
  8
WIRING
  6
CONTINUOUS
 62
     7
  5
741
 10
7.0
 20
8.349999
 30
0.0
 11
7.050003
 21
8.25
 31
0.0
  0
LINE
  8
WIRING
  6
CONTINUOUS
 62
     7
  5
742
 10
7.050003
 20
8.25
 30
0.0
 11
7.100002
 21
8.349999
 31
0.0
  0
LINE
  8
WIRING
  6
CONTINUOUS
 62
     7
  5
743
 10
7.100002
 20
8.349999
 30
0.0
 11
7.150001
 21
8.25
 31
0.0
  0
LINE
  8
WIRING
  6
CONTINUOUS
 62
     7
  5
744
 10
7.150001
 20
8.25
 30
0.0
 11
7.174999
 21
8.299999
 31
0.0
  0
LINE
  8
WIRING
  6
CONTINUOUS
 62
     7
  5
745
 10
7.174999
 20
8.299999
 30
0.0
 11
7.2
 21
8.299999
 31
0.0
  0
LINE
  8
WIRING
  6
CONTINUOUS
 62
     7
  5
746
 10
6.900001
 20
8.349999
 30
0.0
 11
6.875
 21
8.299999
 31
0.0
  0
LINE
  8
WIRING
  6
CONTINUOUS
 62
     7
  5
747
 10
6.900001
 20
8.15
 30
0.0
 11
6.95
 21
8.049999
 31
0.0
  0
LINE
  8
WIRING
  6
CONTINUOUS
 62
     7
  5
748
 10
6.95
 20
8.049999
 30
0.0
 11
7.0
 21
8.15
 31
0.0
  0
LINE
  8
WIRING
  6
CONTINUOUS
 62
     7
  5
749
 10
7.0
 20
8.15
 30
0.0
 11
7.050003
 21
8.049999
 31
0.0
  0
LINE
  8
WIRING
  6
CONTINUOUS
 62
     7
  5
74A
 10
7.050003
 20
8.049999
 30
0.0
 11
7.100002
 21
8.15
 31
0.0
  0
LINE
  8
WIRING
  6
CONTINUOUS
 62
     7
  5
74B
 10
7.100002
 20
8.15
 30
0.0
 11
7.150001
 21
8.049999
 31
0.0
  0
LINE
  8
WIRING
  6
CONTINUOUS
 62
     7
  5
74C
 10
7.150001
 20
8.049999
 30
0.0
 11
7.174999
 21
8.099999
 31
0.0
  0
LINE
  8
WIRING
  6
CONTINUOUS
 62
     7
  5
74D
 10
7.174999
 20
8.099999
 30
0.0
 11
7.2
 21
8.099999
 31
0.0
  0
LINE
  8
WIRING
  6
CONTINUOUS
 62
     7
  5
74E
 10
6.900001
 20
8.15
 30
0.0
 11
6.875
 21
8.099999
 31
0.0
  0
LINE
  8
WIRING
  6
CONTINUOUS
 62
     7
  5
74F
 10
7.2
 20
8.299999
 30
0.0
 11
7.25
 21
8.299999
 31
0.0
  0
LINE
  8
WIRING
  6
CONTINUOUS
 62
     7
  5
750
 10
7.2
 20
8.099999
 30
0.0
 11
7.25
 21
8.099999
 31
0.0
  0
LINE
  8
WIRING
  6
CONTINUOUS
 62
     7
  5
751
 10
7.199999
 20
8.5
 30
0.0
 11
7.25
 21
8.5
 31
0.0
  0
LINE
  8
WIRING
  6
CONTINUOUS
 62
     7
  5
752
 10
6.875
 20
8.499999
 30
0.0
 11
6.85
 21
8.5
 31
0.0
  0
LINE
  8
WIRING
  6
CONTINUOUS
 62
     7
  5
753
 10
6.875
 20
8.299999
 30
0.0
 11
6.85
 21
8.3
 31
0.0
  0
LINE
  8
WIRING
  6
CONTINUOUS
 62
     7
  5
754
 10
6.875
 20
8.099999
 30
0.0
 11
6.85
 21
8.099999
 31
0.0
  0
LINE
  8
WIRING
  6
CONTINUOUS
 62
     7
  5
755
 10
6.699999
 20
8.5
 30
0.0
 11
6.85
 21
8.5
 31
0.0
  0
LINE
  8
WIRING
  6
CONTINUOUS
 62
     7
  5
756
 10
7.25
 20
8.5
 30
0.0
 11
7.699999
 21
8.5
 31
0.0
  0
LINE
  8
WIRING
  6
CONTINUOUS
 62
     7
  5
757
 10
7.25
 20
8.299999
 30
0.0
 11
7.449999
 21
8.3
 31
0.0
  0
LINE
  8
WIRING
  6
CONTINUOUS
 62
     7
  5
758
 10
7.25
 20
8.099999
 30
0.0
 11
7.25
 21
5.8
 31
0.0
  0
LINE
  8
WIRING
  6
CONTINUOUS
 62
     7
  5
759
 10
7.6
 20
5.8
 30
0.0
 11
7.25
 21
5.8
 31
0.0
  0
LINE
  8
COMPON
  6
CONTINUOUS
 62
     7
  5
75A
 10
7.25
 20
5.650002
 30
0.0
 11
7.299999
 21
5.625
 31
0.0
  0
LINE
  8
COMPON
  6
CONTINUOUS
 62
     7
  5
75B
 10
7.299999
 20
5.625
 30
0.0
 11
7.199999
 21
5.575001
 31
0.0
  0
LINE
  8
COMPON
  6
CONTINUOUS
 62
     7
  5
75C
 10
7.199999
 20
5.575001
 30
0.0
 11
7.299999
 21
5.525002
 31
0.0
  0
LINE
  8
COMPON
  6
CONTINUOUS
 62
     7
  5
75D
 10
7.299999
 20
5.525002
 30
0.0
 11
7.199999
 21
5.475003
 31
0.0
  0
LINE
  8
COMPON
  6
CONTINUOUS
 62
     7
  5
75E
 10
7.199999
 20
5.475003
 30
0.0
 11
7.299999
 21
5.425
 31
0.0
  0
LINE
  8
COMPON
  6
CONTINUOUS
 62
     7
  5
75F
 10
7.299999
 20
5.425
 30
0.0
 11
7.199999
 21
5.375
 31
0.0
  0
LINE
  8
COMPON
  6
CONTINUOUS
 62
     7
  5
760
 10
7.199999
 20
5.375
 30
0.0
 11
7.25
 21
5.350003
 31
0.0
  0
LINE
  8
COMPON
  6
CONTINUOUS
 62
     7
  5
761
 10
7.25
 20
5.350003
 30
0.0
 11
7.25
 21
5.3
 31
0.0
  0
LINE
  8
WIRING
  6
CONTINUOUS
 62
     7
  5
762
 10
7.25
 20
5.650002
 30
0.0
 11
7.25
 21
5.800002
 31
0.0
  0
LINE
  8
WIRING
  6
CONTINUOUS
 62
     7
  5
763
 10
7.249999
 20
5.350001
 30
0.0
 11
7.249999
 21
5.200001
 31
0.0
  0
LINE
  8
WIRING
  6
CONTINUOUS
 62
     7
  5
764
 10
7.249999
 20
5.200001
 30
0.0
 11
7.2
 21
5.200001
 31
0.0
  0
LINE
  8
WIRING
  6
CONTINUOUS
 62
     7
  5
765
 10
7.2
 20
5.200001
 30
0.0
 11
7.249999
 21
5.100001
 31
0.0
  0
LINE
  8
WIRING
  6
CONTINUOUS
 62
     7
  5
766
 10
7.249999
 20
5.100001
 30
0.0
 11
7.299999
 21
5.200001
 31
0.0
  0
LINE
  8
WIRING
  6
CONTINUOUS
 62
     7
  5
767
 10
7.299999
 20
5.200001
 30
0.0
 11
7.249999
 21
5.200001
 31
0.0
  0
TEXT
  8
WIRING
  6
CONTINUOUS
 62
     7
  5
768
 10
7.349999
 20
5.35
 30
0.0
 40
0.05
  1
100K
  7
VC-TEXTSTYLE0
  0
LINE
  8
WIRING
  6
CONTINUOUS
 62
     7
  5
769
 10
6.75
 20
8.299999
 30
0.0
 11
6.85
 21
8.3
 31
0.0
  0
LINE
  8
WIRING
  6
CONTINUOUS
 62
     7
  5
76A
 10
6.65
 20
7.9
 30
0.0
 11
6.65
 21
7.9
 31
0.0
  0
LINE
  8
COMPON
  6
CONTINUOUS
 62
     7
  5
76B
 10
6.550002
 20
8.200001
 30
0.0
 11
6.75
 21
8.200001
 31
0.0
  0
LINE
  8
WIRING
  6
CONTINUOUS
 62
     7
  5
76C
 10
6.5
 20
8.1
 30
0.0
 11
6.85
 21
8.1
 31
0.0
  0
CIRCLE
  8
WIRING
  6
CONTINUOUS
 62
     7
  5
76D
 10
8.799998
 20
-0.150001
 30
0.0
 40
0.012501
  0
CIRCLE
  8
WIRING
  6
CONTINUOUS
 62
     7
  5
76E
 10
8.899999
 20
-0.150001
 30
0.0
 40
0.012499
  0
LINE
  8
WIRING
  6
CONTINUOUS
 62
     7
  5
76F
 10
8.899999
 20
-0.05
 30
0.0
 11
8.849998
 21
-0.000001
 31
0.0
  0
LINE
  8
WIRING
  6
CONTINUOUS
 62
     7
  5
770
 10
8.899999
 20
0.05
 30
0.0
 11
8.849998
 21
0.099999
 31
0.0
  0
LINE
  8
WIRING
  6
CONTINUOUS
 62
     7
  5
771
 10
8.799998
 20
-0.000001
 30
0.0
 11
8.849998
 21
-0.000001
 31
0.0
  0
CIRCLE
  8
WIRING
  6
CONTINUOUS
 62
     7
  5
772
 10
8.799998
 20
0.15
 30
0.0
 40
0.012501
  0
CIRCLE
  8
WIRING
  6
CONTINUOUS
 62
     7
  5
773
 10
8.899999
 20
0.15
 30
0.0
 40
0.012499
  0
CIRCLE
  8
WIRING
  6
CONTINUOUS
 62
     7
  5
774
 10
8.799998
 20
0.05
 30
0.0
 40
0.012501
  0
CIRCLE
  8
WIRING
  6
CONTINUOUS
 62
     7
  5
775
 10
8.899999
 20
0.05
 30
0.0
 40
0.012499
  0
CIRCLE
  8
WIRING
  6
CONTINUOUS
 62
     7
  5
776
 10
8.799998
 20
-0.05
 30
0.0
 40
0.012501
  0
CIRCLE
  8
WIRING
  6
CONTINUOUS
 62
     7
  5
777
 10
8.899999
 20
-0.05
 30
0.0
 40
0.012499
  0
LINE
  8
WIRING
  6
CONTINUOUS
 62
     7
  5
778
 10
8.899999
 20
-0.150001
 30
0.0
 11
8.849998
 21
-0.1
 31
0.0
  0
TEXT
  8
WIRING
  6
CONTINUOUS
 62
     7
  5
779
 10
8.95
 20
0.125
 30
0.0
 40
0.05
  1
GND - PWR
  7
VC-TEXTSTYLE0
  0
TEXT
  8
WIRING
  6
CONTINUOUS
 62
     7
  5
77A
 10
8.95
 20
0.025
 30
0.0
 40
0.05
  1
RxD - TxD
  7
VC-TEXTSTYLE0
  0
TEXT
  8
WIRING
  6
CONTINUOUS
 62
     7
  5
77B
 10
8.95
 20
-0.075
 30
0.0
 40
0.05
  1
DTR - DCD
  7
VC-TEXTSTYLE0
  0
TEXT
  8
WIRING
  6
CONTINUOUS
 62
     7
  5
77C
 10
8.7
 20
0.2
 30
0.0
 40
0.05
  1
1
  7
VC-TEXTSTYLE0
  0
TEXT
  8
WIRING
  6
CONTINUOUS
 62
     7
  5
77D
 10
8.950001
 20
0.2
 30
0.0
 40
0.05
  1
14
  7
VC-TEXTSTYLE0
  0
CIRCLE
  8
WIRING
  6
CONTINUOUS
 62
     7
  5
77E
 10
8.799998
 20
0.649999
 30
0.0
 40
0.012501
  0
CIRCLE
  8
WIRING
  6
CONTINUOUS
 62
     7
  5
77F
 10
8.899999
 20
0.649999
 30
0.0
 40
0.012499
  0
CIRCLE
  8
WIRING
  6
CONTINUOUS
 62
     7
  5
780
 10
8.799998
 20
0.55
 30
0.0
 40
0.012501
  0
CIRCLE
  8
WIRING
  6
CONTINUOUS
 62
     7
  5
781
 10
8.899999
 20
0.55
 30
0.0
 40
0.012499
  0
CIRCLE
  8
WIRING
  6
CONTINUOUS
 62
     7
  5
782
 10
8.799998
 20
0.45
 30
0.0
 40
0.012501
  0
CIRCLE
  8
WIRING
  6
CONTINUOUS
 62
     7
  5
783
 10
8.899999
 20
0.45
 30
0.0
 40
0.012499
  0
CIRCLE
  8
WIRING
  6
CONTINUOUS
 62
     7
  5
784
 10
8.799998
 20
0.85
 30
0.0
 40
0.012501
  0
CIRCLE
  8
WIRING
  6
CONTINUOUS
 62
     7
  5
785
 10
8.899999
 20
0.85
 30
0.0
 40
0.012499
  0
CIRCLE
  8
WIRING
  6
CONTINUOUS
 62
     7
  5
786
 10
8.799998
 20
0.75
 30
0.0
 40
0.012501
  0
CIRCLE
  8
WIRING
  6
CONTINUOUS
 62
     7
  5
787
 10
8.899999
 20
0.75
 30
0.0
 40
0.012499
  0
TEXT
  8
WIRING
  6
CONTINUOUS
 62
     7
  5
788
 10
8.7
 20
0.9
 30
0.0
 40
0.05
  1
1
  7
VC-TEXTSTYLE0
  0
LINE
  8
WIRING
  6
CONTINUOUS
 62
     7
  5
789
 10
8.8
 20
0.05
 30
0.0
 11
8.6
 21
0.05
 31
0.0
  0
LINE
  8
WIRING
  6
CONTINUOUS
 62
     7
  5
78A
 10
8.6
 20
0.05
 30
0.0
 11
8.6
 21
0.65
 31
0.0
  0
LINE
  8
WIRING
  6
CONTINUOUS
 62
     7
  5
78B
 10
8.85
 20
0.1
 30
0.0
 11
8.650001
 21
0.1
 31
0.0
  0
LINE
  8
WIRING
  6
CONTINUOUS
 62
     7
  5
78C
 10
8.650001
 20
0.75
 30
0.0
 11
8.8
 21
0.75
 31
0.0
  0
LINE
  8
WIRING
  6
CONTINUOUS
 62
     7
  5
78D
 10
8.8
 20
0.2
 30
0.0
 11
8.8
 21
0.45
 31
0.0
  0
LINE
  8
WIRING
  6
CONTINUOUS
 62
     7
  5
78E
 10
8.8
 20
0.15
 30
0.0
 11
8.8
 21
0.2
 31
0.0
  0
LINE
  8
WIRING
  6
CONTINUOUS
 62
     7
  5
78F
 10
8.8
 20
0.0
 30
0.0
 11
8.55
 21
0.0
 31
0.0
  0
LINE
  8
WIRING
  6
CONTINUOUS
 62
     7
  5
790
 10
8.55
 20
0.0
 30
0.0
 11
8.55
 21
0.85
 31
0.0
  0
LINE
  8
WIRING
  6
CONTINUOUS
 62
     7
  5
791
 10
8.55
 20
0.85
 30
0.0
 11
8.8
 21
0.85
 31
0.0
  0
LINE
  8
WIRING
  6
CONTINUOUS
 62
     7
  5
792
 10
8.900001
 20
0.55
 30
0.0
 11
8.900001
 21
0.65
 31
0.0
  0
LINE
  8
WIRING
  6
CONTINUOUS
 62
     7
  5
793
 10
8.900001
 20
0.15
 30
0.0
 11
8.900001
 21
0.3
 31
0.0
  0
LINE
  8
WIRING
  6
CONTINUOUS
 62
     7
  5
794
 10
8.55
 20
-0.8
 30
0.0
 11
8.85
 21
-0.8
 31
0.0
  0
LINE
  8
WIRING
  6
CONTINUOUS
 62
     7
  5
795
 10
8.55
 20
-1.0
 30
0.0
 11
8.55
 21
-0.75
 31
0.0
  0
LINE
  8
WIRING
  6
CONTINUOUS
 62
     7
  5
796
 10
8.55
 20
-0.75
 30
0.0
 11
8.8
 21
-0.75
 31
0.0
  0
LINE
  8
WIRING
  6
CONTINUOUS
 62
     7
  5
797
 10
8.8
 20
-0.65
 30
0.0
 11
8.6
 21
-0.65
 31
0.0
  0
LINE
  8
WIRING
  6
CONTINUOUS
 62
     7
  5
798
 10
8.6
 20
-0.65
 30
0.0
 11
8.6
 21
-0.2
 31
0.0
  0
LINE
  8
WIRING
  6
CONTINUOUS
 62
     7
  5
799
 10
8.85
 20
-0.5
 30
0.0
 11
8.55
 21
-0.5
 31
0.0
  0
LINE
  8
WIRING
  6
CONTINUOUS
 62
     7
  5
79A
 10
8.55
 20
-0.5
 30
0.0
 11
8.55
 21
-0.25
 31
0.0
  0
LINE
  8
WIRING
  6
CONTINUOUS
 62
     7
  5
79B
 10
8.7
 20
-0.15
 30
0.0
 11
8.7
 21
0.15
 31
0.0
  0
TEXT
  8
WIRING
  6
CONTINUOUS
 62
     7
  5
79C
 10
8.950001
 20
0.9
 30
0.0
 40
0.05
  1
6
  7
VC-TEXTSTYLE0
  0
TEXT
  8
WIRING
  6
CONTINUOUS
 62
     7
  5
79D
 10
8.95
 20
0.4
 30
0.0
 40
0.05
  1
10
  7
VC-TEXTSTYLE0
  0
LINE
  8
WIRING
  6
CONTINUOUS
 62
     7
  5
79E
 10
8.650001
 20
0.1
 30
0.0
 11
8.650001
 21
0.65
 31
0.0
  0
LINE
  8
WIRING
  6
CONTINUOUS
 62
     7
  5
79F
 10
8.650001
 20
0.65
 30
0.0
 11
8.8
 21
0.65
 31
0.0
  0
LINE
  8
WIRING
  6
CONTINUOUS
 62
     7
  5
7A0
 10
8.6
 20
0.65
 30
0.0
 11
8.6
 21
0.75
 31
0.0
  0
LINE
  8
WIRING
  6
CONTINUOUS
 62
     7
  5
7A1
 10
8.6
 20
0.75
 30
0.0
 11
8.75
 21
0.75
 31
0.0
  0
CIRCLE
  8
WIRING
  6
CONTINUOUS
 62
     7
  5
7A2
 10
8.799998
 20
-1.049999
 30
0.0
 40
0.012501
  0
CIRCLE
  8
WIRING
  6
CONTINUOUS
 62
     7
  5
7A3
 10
8.899999
 20
-1.049999
 30
0.0
 40
0.012499
  0
TEXT
  8
WIRING
  6
CONTINUOUS
 62
     7
  5
7A4
 10
8.650001
 20
-1.15
 30
0.0
 40
0.05
  1
13
  7
VC-TEXTSTYLE0
  0
TEXT
  8
WIRING
  6
CONTINUOUS
 62
     7
  5
7A5
 10
8.950002
 20
-1.15
 30
0.0
 40
0.05
  1
26
  7
VC-TEXTSTYLE0
  0
TEXT
  8
WIRING
  6
CONTINUOUS
 62
     7
  5
7A6
 10
8.95
 20
-1.075
 30
0.0
 40
0.05
  1
AN1
  7
VC-TEXTSTYLE0
  0
LINE
  8
WIRING
  6
CONTINUOUS
 62
     7
  5
7A7
 10
8.899999
 20
-0.349999
 30
0.0
 11
8.849998
 21
-0.3
 31
0.0
  0
LINE
  8
WIRING
  6
CONTINUOUS
 62
     7
  5
7A8
 10
8.899999
 20
-0.249999
 30
0.0
 11
8.849998
 21
-0.2
 31
0.0
  0
CIRCLE
  8
WIRING
  6
CONTINUOUS
 62
     7
  5
7A9
 10
8.799998
 20
-0.25
 30
0.0
 40
0.012501
  0
CIRCLE
  8
WIRING
  6
CONTINUOUS
 62
     7
  5
7AA
 10
8.899999
 20
-0.25
 30
0.0
 40
0.012499
  0
CIRCLE
  8
WIRING
  6
CONTINUOUS
 62
     7
  5
7AB
 10
8.799998
 20
-0.349999
 30
0.0
 40
0.012501
  0
CIRCLE
  8
WIRING
  6
CONTINUOUS
 62
     7
  5
7AC
 10
8.899999
 20
-0.349999
 30
0.0
 40
0.012499
  0
CIRCLE
  8
WIRING
  6
CONTINUOUS
 62
     7
  5
7AD
 10
8.799998
 20
-0.849999
 30
0.0
 40
0.012501
  0
CIRCLE
  8
WIRING
  6
CONTINUOUS
 62
     7
  5
7AE
 10
8.899999
 20
-0.849999
 30
0.0
 40
0.012499
  0
CIRCLE
  8
WIRING
  6
CONTINUOUS
 62
     7
  5
7AF
 10
8.799998
 20
-0.95
 30
0.0
 40
0.012501
  0
CIRCLE
  8
WIRING
  6
CONTINUOUS
 62
     7
  5
7B0
 10
8.899999
 20
-0.95
 30
0.0
 40
0.012499
  0
LINE
  8
WIRING
  6
CONTINUOUS
 62
     7
  5
7B1
 10
8.849998
 20
-0.900001
 30
0.0
 11
8.899999
 21
-0.95
 31
0.0
  0
LINE
  8
WIRING
  6
CONTINUOUS
 62
     7
  5
7B2
 10
8.899999
 20
-0.35
 30
0.0
 11
8.849998
 21
-0.300001
 31
0.0
  0
LINE
  8
WIRING
  6
CONTINUOUS
 62
     7
  5
7B3
 10
8.899999
 20
-0.25
 30
0.0
 11
8.849998
 21
-0.200001
 31
0.0
  0
LINE
  8
WIRING
  6
CONTINUOUS
 62
     7
  5
7B4
 10
8.799998
 20
-0.200001
 30
0.0
 11
8.849998
 21
-0.200001
 31
0.0
  0
CIRCLE
  8
WIRING
  6
CONTINUOUS
 62
     7
  5
7B5
 10
8.799998
 20
-0.25
 30
0.0
 40
0.012501
  0
CIRCLE
  8
WIRING
  6
CONTINUOUS
 62
     7
  5
7B6
 10
8.899999
 20
-0.25
 30
0.0
 40
0.012499
  0
CIRCLE
  8
WIRING
  6
CONTINUOUS
 62
     7
  5
7B7
 10
8.799998
 20
-0.35
 30
0.0
 40
0.012501
  0
CIRCLE
  8
WIRING
  6
CONTINUOUS
 62
     7
  5
7B8
 10
8.899999
 20
-0.35
 30
0.0
 40
0.012499
  0
CIRCLE
  8
WIRING
  6
CONTINUOUS
 62
     7
  5
7B9
 10
8.799998
 20
-0.45
 30
0.0
 40
0.012501
  0
CIRCLE
  8
WIRING
  6
CONTINUOUS
 62
     7
  5
7BA
 10
8.899999
 20
-0.45
 30
0.0
 40
0.012499
  0
CIRCLE
  8
WIRING
  6
CONTINUOUS
 62
     7
  5
7BB
 10
8.799998
 20
-0.549999
 30
0.0
 40
0.012501
  0
CIRCLE
  8
WIRING
  6
CONTINUOUS
 62
     7
  5
7BC
 10
8.899999
 20
-0.549999
 30
0.0
 40
0.012499
  0
LINE
  8
WIRING
  6
CONTINUOUS
 62
     7
  5
7BD
 10
8.899999
 20
-0.450001
 30
0.0
 11
8.849998
 21
-0.400001
 31
0.0
  0
LINE
  8
WIRING
  6
CONTINUOUS
 62
     7
  5
7BE
 10
8.899999
 20
-0.55
 30
0.0
 11
8.849998
 21
-0.5
 31
0.0
  0
CIRCLE
  8
WIRING
  6
CONTINUOUS
 62
     7
  5
7BF
 10
8.799998
 20
-0.65
 30
0.0
 40
0.012501
  0
CIRCLE
  8
WIRING
  6
CONTINUOUS
 62
     7
  5
7C0
 10
8.899999
 20
-0.65
 30
0.0
 40
0.012499
  0
CIRCLE
  8
WIRING
  6
CONTINUOUS
 62
     7
  5
7C1
 10
8.799998
 20
-0.75
 30
0.0
 40
0.012501
  0
CIRCLE
  8
WIRING
  6
CONTINUOUS
 62
     7
  5
7C2
 10
8.899999
 20
-0.75
 30
0.0
 40
0.012499
  0
CIRCLE
  8
WIRING
  6
CONTINUOUS
 62
     7
  5
7C3
 10
8.799998
 20
-0.849999
 30
0.0
 40
0.012501
  0
CIRCLE
  8
WIRING
  6
CONTINUOUS
 62
     7
  5
7C4
 10
8.899999
 20
-0.849999
 30
0.0
 40
0.012499
  0
LINE
  8
WIRING
  6
CONTINUOUS
 62
     7
  5
7C5
 10
8.849998
 20
-0.700001
 30
0.0
 11
8.899999
 21
-0.75
 31
0.0
  0
LINE
  8
WIRING
  6
CONTINUOUS
 62
     7
  5
7C6
 10
8.899999
 20
-0.85
 30
0.0
 11
8.849998
 21
-0.8
 31
0.0
  0
LINE
  8
WIRING
  6
CONTINUOUS
 62
     7
  5
7C7
 10
8.899999
 20
-0.650001
 30
0.0
 11
8.849998
 21
-0.6
 31
0.0
  0
TEXT
  8
WIRING
  6
CONTINUOUS
 62
     7
  5
7C8
 10
8.95
 20
-0.175
 30
0.0
 40
0.05
  1
P3.5 - P3.4
  7
VC-TEXTSTYLE0
  0
TEXT
  8
WIRING
  6
CONTINUOUS
 62
     7
  5
7C9
 10
8.95
 20
-0.275
 30
0.0
 40
0.05
  1
Reserved
  7
VC-TEXTSTYLE0
  0
TEXT
  8
WIRING
  6
CONTINUOUS
 62
     7
  5
7CA
 10
8.95
 20
-0.375
 30
0.0
 40
0.05
  1
Reserved
  7
VC-TEXTSTYLE0
  0
TEXT
  8
WIRING
  6
CONTINUOUS
 62
     7
  5
7CB
 10
8.95
 20
-0.475
 30
0.0
 40
0.05
  1
------ P1.4
  7
VC-TEXTSTYLE0
  0
TEXT
  8
WIRING
  6
CONTINUOUS
 62
     7
  5
7CC
 10
8.95
 20
-0.575
 30
0.0
 40
0.05
  1
P1.3 - P1.2
  7
VC-TEXTSTYLE0
  0
TEXT
  8
WIRING
  6
CONTINUOUS
 62
     7
  5
7CD
 10
8.95
 20
-0.675
 30
0.0
 40
0.05
  1
P1.1 - P1.0
  7
VC-TEXTSTYLE0
  0
TEXT
  8
WIRING
  6
CONTINUOUS
 62
     7
  5
7CE
 10
8.95
 20
-0.775
 30
0.0
 40
0.05
  1
AN7 - AN6
  7
VC-TEXTSTYLE0
  0
TEXT
  8
WIRING
  6
CONTINUOUS
 62
     7
  5
7CF
 10
8.95
 20
-0.875
 30
0.0
 40
0.05
  1
AN5 - AN4
  7
VC-TEXTSTYLE0
  0
TEXT
  8
WIRING
  6
CONTINUOUS
 62
     7
  5
7D0
 10
8.95
 20
-0.975
 30
0.0
 40
0.05
  1
AN3 - AN2
  7
VC-TEXTSTYLE0
  0
LINE
  8
WIRING
  6
CONTINUOUS
 62
     7
  5
7D1
 10
8.75
 20
-0.3
 30
0.0
 11
8.75
 21
-0.4
 31
0.0
  0
LINE
  8
WIRING
  6
CONTINUOUS
 62
     7
  5
7D2
 10
8.75
 20
-0.4
 30
0.0
 11
8.85
 21
-0.4
 31
0.0
  0
LINE
  8
WIRING
  6
CONTINUOUS
 62
     7
  5
7D3
 10
8.7
 20
-0.35
 30
0.0
 11
8.7
 21
-0.5
 31
0.0
  0
LINE
  8
WIRING
  6
CONTINUOUS
 62
     7
  5
7D4
 10
8.85
 20
-0.6
 30
0.0
 11
8.650001
 21
-0.6
 31
0.0
  0
LINE
  8
WIRING
  6
CONTINUOUS
 62
     7
  5
7D5
 10
8.650001
 20
-0.6
 30
0.0
 11
8.650001
 21
-0.15
 31
0.0
  0
LINE
  8
WIRING
  6
CONTINUOUS
 62
     7
  5
7D6
 10
8.8
 20
-0.55
 30
0.0
 11
8.7
 21
-0.55
 31
0.0
  0
LINE
  8
WIRING
  6
CONTINUOUS
 62
     7
  5
7D7
 10
8.7
 20
-0.55
 30
0.0
 11
8.7
 21
-0.45
 31
0.0
  0
LINE
  8
WIRING
  6
CONTINUOUS
 62
     7
  5
7D8
 10
8.8
 20
-0.15
 30
0.0
 11
8.7
 21
-0.15
 31
0.0
  0
TEXT
  8
WIRING
  6
CONTINUOUS
 62
     7
  5
7D9
 10
8.35
 20
1.0
 30
0.0
 40
0.05
  1
Headers shown from top
  7
VC-TEXTSTYLE0
  0
LINE
  8
WIRING
  6
CONTINUOUS
 62
     7
  5
7DA
 10
6.75
 20
8.6
 30
0.0
 11
6.75
 21
7.25
 31
0.0
  0
LINE
  8
WIRING
  6
CONTINUOUS
 62
     7
  5
7DB
 10
4.7
 20
7.25
 30
0.0
 11
6.75
 21
7.25
 31
0.0
  0
LINE
  8
WIRING
  6
CONTINUOUS
 62
     7
  5
7DC
 10
6.6
 20
4.5
 30
0.0
 11
6.6
 21
4.7
 31
0.0
  0
LINE
  8
COMPON
  6
CONTINUOUS
 62
     7
  5
7DD
 10
6.599999
 20
4.744998
 30
0.0
 11
6.549999
 21
4.769999
 31
0.0
  0
LINE
  8
COMPON
  6
CONTINUOUS
 62
     7
  5
7DE
 10
6.549999
 20
4.769999
 30
0.0
 11
6.65
 21
4.819998
 31
0.0
  0
LINE
  8
COMPON
  6
CONTINUOUS
 62
     7
  5
7DF
 10
6.65
 20
4.819998
 30
0.0
 11
6.549999
 21
4.869998
 31
0.0
  0
LINE
  8
COMPON
  6
CONTINUOUS
 62
     7
  5
7E0
 10
6.549999
 20
4.869998
 30
0.0
 11
6.65
 21
4.919997
 31
0.0
  0
LINE
  8
COMPON
  6
CONTINUOUS
 62
     7
  5
7E1
 10
6.65
 20
4.919997
 30
0.0
 11
6.549999
 21
4.97
 31
0.0
  0
LINE
  8
COMPON
  6
CONTINUOUS
 62
     7
  5
7E2
 10
6.549999
 20
4.97
 30
0.0
 11
6.65
 21
5.019999
 31
0.0
  0
LINE
  8
COMPON
  6
CONTINUOUS
 62
     7
  5
7E3
 10
6.65
 20
5.019999
 30
0.0
 11
6.599999
 21
5.044997
 31
0.0
  0
LINE
  8
COMPON
  6
CONTINUOUS
 62
     7
  5
7E4
 10
6.599999
 20
5.044997
 30
0.0
 11
6.599999
 21
5.095
 31
0.0
  0
LINE
  8
WIRING
  6
CONTINUOUS
 62
     7
  5
7E5
 10
6.6
 20
4.75
 30
0.0
 11
6.6
 21
4.7
 31
0.0
  0
LINE
  8
WIRING
  6
CONTINUOUS
 62
     7
  5
7E6
 10
6.6
 20
5.1
 30
0.0
 11
6.6
 21
5.25
 31
0.0
  0
LINE
  8
WIRING
  6
CONTINUOUS
 62
     7
  5
7E7
 10
6.6
 20
5.25
 30
0.0
 11
6.5
 21
5.25
 31
0.0
  0
LINE
  8
WIRING
  6
CONTINUOUS
 62
     7
  5
7E8
 10
6.5
 20
5.25
 30
0.0
 11
6.6
 21
5.35
 31
0.0
  0
LINE
  8
WIRING
  6
CONTINUOUS
 62
     7
  5
7E9
 10
6.6
 20
5.35
 30
0.0
 11
6.7
 21
5.25
 31
0.0
  0
LINE
  8
WIRING
  6
CONTINUOUS
 62
     7
  5
7EA
 10
6.7
 20
5.25
 30
0.0
 11
6.6
 21
5.25
 31
0.0
  0
LINE
  8
WIRING
  6
CONTINUOUS
 62
     7
  5
7EB
 10
6.6
 20
5.35
 30
0.0
 11
6.5
 21
5.35
 31
0.0
  0
LINE
  8
WIRING
  6
CONTINUOUS
 62
     7
  5
7EC
 10
6.6
 20
5.35
 30
0.0
 11
6.7
 21
5.35
 31
0.0
  0
LINE
  8
WIRING
  6
CONTINUOUS
 62
     7
  5
7ED
 10
6.6
 20
5.35
 30
0.0
 11
6.6
 21
5.5
 31
0.0
  0
TEXT
  8
WIRING
  6
CONTINUOUS
 62
     7
  5
7EE
 10
6.35
 20
4.949999
 30
0.0
 40
0.05
  1
150
  7
VC-TEXTSTYLE0
  0
LINE
  8
WIRING
  6
CONTINUOUS
 62
     7
  5
7EF
 10
6.6
 20
5.5
 30
0.0
 11
6.6
 21
7.25
 31
0.0
  0
LINE
  8
WIRING
  6
CONTINUOUS
 62
     7
  5
7F0
 10
1.45
 20
8.35
 30
0.0
 11
1.3
 21
8.35
 31
0.0
  0
LINE
  8
WIRING
  6
CONTINUOUS
 62
     7
  5
7F1
 10
1.3
 20
8.900001
 30
0.0
 11
1.3
 21
8.35
 31
0.0
  0
LINE
  8
WIRING
  6
CONTINUOUS
 62
     7
  5
7F2
 10
1.600003
 20
9.799999
 30
0.0
 11
1.650003
 21
9.699999
 31
0.0
  0
LINE
  8
WIRING
  6
CONTINUOUS
 62
     7
  5
7F3
 10
1.650003
 20
9.699999
 30
0.0
 11
1.700004
 21
9.799999
 31
0.0
  0
LINE
  8
WIRING
  6
CONTINUOUS
 62
     7
  5
7F4
 10
1.700004
 20
9.799999
 30
0.0
 11
1.750005
 21
9.699999
 31
0.0
  0
LINE
  8
WIRING
  6
CONTINUOUS
 62
     7
  5
7F5
 10
1.750005
 20
9.699999
 30
0.0
 11
1.800004
 21
9.799999
 31
0.0
  0
LINE
  8
WIRING
  6
CONTINUOUS
 62
     7
  5
7F6
 10
1.800004
 20
9.799999
 30
0.0
 11
1.850003
 21
9.699999
 31
0.0
  0
LINE
  8
WIRING
  6
CONTINUOUS
 62
     7
  5
7F7
 10
1.850003
 20
9.699999
 30
0.0
 11
1.875003
 21
9.749999
 31
0.0
  0
LINE
  8
WIRING
  6
CONTINUOUS
 62
     7
  5
7F8
 10
1.875003
 20
9.749999
 30
0.0
 11
1.900005
 21
9.749999
 31
0.0
  0
LINE
  8
WIRING
  6
CONTINUOUS
 62
     7
  5
7F9
 10
1.600003
 20
9.799999
 30
0.0
 11
1.575004
 21
9.749999
 31
0.0
  0
LINE
  8
WIRING
  6
CONTINUOUS
 62
     7
  5
7FA
 10
1.550003
 20
9.749999
 30
0.0
 11
1.450004
 21
9.749999
 31
0.0
  0
LINE
  8
WIRING
  6
CONTINUOUS
 62
     7
  5
7FB
 10
1.575004
 20
9.749999
 30
0.0
 11
1.550003
 21
9.749999
 31
0.0
  0
LINE
  8
WIRING
  6
CONTINUOUS
 62
     7
  5
7FC
 10
1.600003
 20
9.599999
 30
0.0
 11
1.650003
 21
9.5
 31
0.0
  0
LINE
  8
WIRING
  6
CONTINUOUS
 62
     7
  5
7FD
 10
1.650003
 20
9.5
 30
0.0
 11
1.700004
 21
9.599999
 31
0.0
  0
LINE
  8
WIRING
  6
CONTINUOUS
 62
     7
  5
7FE
 10
1.700004
 20
9.599999
 30
0.0
 11
1.750005
 21
9.5
 31
0.0
  0
LINE
  8
WIRING
  6
CONTINUOUS
 62
     7
  5
7FF
 10
1.750005
 20
9.5
 30
0.0
 11
1.800004
 21
9.599999
 31
0.0
  0
LINE
  8
WIRING
  6
CONTINUOUS
 62
     7
  5
800
 10
1.800004
 20
9.599999
 30
0.0
 11
1.850003
 21
9.5
 31
0.0
  0
LINE
  8
WIRING
  6
CONTINUOUS
 62
     7
  5
801
 10
1.850003
 20
9.5
 30
0.0
 11
1.875003
 21
9.549999
 31
0.0
  0
LINE
  8
WIRING
  6
CONTINUOUS
 62
     7
  5
802
 10
1.875003
 20
9.549999
 30
0.0
 11
1.900005
 21
9.549999
 31
0.0
  0
LINE
  8
WIRING
  6
CONTINUOUS
 62
     7
  5
803
 10
1.600003
 20
9.599999
 30
0.0
 11
1.575004
 21
9.549999
 31
0.0
  0
LINE
  8
WIRING
  6
CONTINUOUS
 62
     7
  5
804
 10
1.550003
 20
9.549999
 30
0.0
 11
1.450004
 21
9.549999
 31
0.0
  0
LINE
  8
WIRING
  6
CONTINUOUS
 62
     7
  5
805
 10
1.575004
 20
9.549999
 30
0.0
 11
1.550003
 21
9.549999
 31
0.0
  0
LINE
  8
WIRING
  6
CONTINUOUS
 62
     7
  5
806
 10
1.600003
 20
9.4
 30
0.0
 11
1.650003
 21
9.299999
 31
0.0
  0
LINE
  8
WIRING
  6
CONTINUOUS
 62
     7
  5
807
 10
1.650003
 20
9.299999
 30
0.0
 11
1.700004
 21
9.4
 31
0.0
  0
LINE
  8
WIRING
  6
CONTINUOUS
 62
     7
  5
808
 10
1.700004
 20
9.4
 30
0.0
 11
1.750005
 21
9.299999
 31
0.0
  0
LINE
  8
WIRING
  6
CONTINUOUS
 62
     7
  5
809
 10
1.750005
 20
9.299999
 30
0.0
 11
1.800004
 21
9.4
 31
0.0
  0
LINE
  8
WIRING
  6
CONTINUOUS
 62
     7
  5
80A
 10
1.800004
 20
9.4
 30
0.0
 11
1.850003
 21
9.299999
 31
0.0
  0
LINE
  8
WIRING
  6
CONTINUOUS
 62
     7
  5
80B
 10
1.850003
 20
9.299999
 30
0.0
 11
1.875003
 21
9.349999
 31
0.0
  0
LINE
  8
WIRING
  6
CONTINUOUS
 62
     7
  5
80C
 10
1.875003
 20
9.349999
 30
0.0
 11
1.900005
 21
9.349999
 31
0.0
  0
LINE
  8
WIRING
  6
CONTINUOUS
 62
     7
  5
80D
 10
1.600003
 20
9.4
 30
0.0
 11
1.575004
 21
9.349999
 31
0.0
  0
LINE
  8
WIRING
  6
CONTINUOUS
 62
     7
  5
80E
 10
1.575004
 20
9.349999
 30
0.0
 11
1.550003
 21
9.349999
 31
0.0
  0
LINE
  8
WIRING
  6
CONTINUOUS
 62
     7
  5
80F
 10
1.9
 20
9.75
 30
0.0
 11
2.0
 21
9.75
 31
0.0
  0
LINE
  8
WIRING
  6
CONTINUOUS
 62
     7
  5
810
 10
1.9
 20
9.75
 30
0.0
 11
2.0
 21
9.75
 31
0.0
  0
LINE
  8
WIRING
  6
CONTINUOUS
 62
     7
  5
811
 10
1.9
 20
9.75
 30
0.0
 11
2.0
 21
9.75
 31
0.0
  0
LINE
  8
WIRING
  6
CONTINUOUS
 62
     7
  5
812
 10
1.9
 20
9.75
 30
0.0
 11
2.0
 21
9.75
 31
0.0
  0
LINE
  8
WIRING
  6
CONTINUOUS
 62
     7
  5
813
 10
1.9
 20
9.549999
 30
0.0
 11
2.0
 21
9.549999
 31
0.0
  0
LINE
  8
WIRING
  6
CONTINUOUS
 62
     7
  5
814
 10
1.9
 20
9.349998
 30
0.0
 11
2.0
 21
9.349998
 31
0.0
  0
LINE
  8
WIRING
  6
CONTINUOUS
 62
     7
  5
815
 10
2.000003
 20
9.85
 30
0.0
 11
1.05
 21
9.85
 31
0.0
  0
LINE
  8
WIRING
  6
CONTINUOUS
 62
     7
  5
816
 10
2.000003
 20
9.65
 30
0.0
 11
1.35
 21
9.650001
 31
0.0
  0
LINE
  8
WIRING
  6
CONTINUOUS
 62
     7
  5
817
 10
1.550003
 20
9.349999
 30
0.0
 11
1.5
 21
9.349999
 31
0.0
  0
LINE
  8
WIRING
  6
CONTINUOUS
 62
     7
  5
818
 10
1.45
 20
9.35
 30
0.0
 11
1.45
 21
9.45
 31
0.0
  0
LINE
  8
WIRING
  6
CONTINUOUS
 62
     7
  5
819
 10
1.45
 20
9.45
 30
0.0
 11
2.000003
 21
9.450001
 31
0.0
  0
LINE
  8
WIRING
  6
CONTINUOUS
 62
     7
  5
81A
 10
2.000003
 20
9.450001
 30
0.0
 11
2.0
 21
9.45
 31
0.0
  0
TEXT
  8
WIRING
  6
CONTINUOUS
 62
     7
  5
81B
 10
2.0
 20
9.900001
 30
0.0
 40
0.05
  1
1
  7
VC-TEXTSTYLE0
  0
TEXT
  8
WIRING
  6
CONTINUOUS
 62
     7
  5
81C
 10
1.5
 20
7.45
 30
0.0
 40
0.05
  1
100K
  7
VC-TEXTSTYLE0
  0
TEXT
  8
WIRING
  6
CONTINUOUS
 62
     7
  5
81D
 10
1.75
 20
7.15
 30
0.0
 40
0.05
  1
0.1uf
  7
VC-TEXTSTYLE0
  0
TEXT
  8
WIRING
  6
CONTINUOUS
 62
     7
  5
81E
 10
2.05
 20
6.8
 30
0.0
 40
0.05
  1
100K
  7
VC-TEXTSTYLE0
  0
TEXT
  8
WIRING
  6
CONTINUOUS
 62
     7
  5
81F
 10
2.6
 20
7.05
 30
0.0
 40
0.05
  1
1M
  7
VC-TEXTSTYLE0
  0
TEXT
  8
WIRING
  6
CONTINUOUS
 62
     7
  5
820
 10
2.0
 20
8.2
 30
0.0
 40
0.05
  1
10K        100K
  7
VC-TEXTSTYLE0
  0
TEXT
  8
WIRING
  6
CONTINUOUS
 62
     7
  5
821
 10
2.85
 20
7.7
 30
0.0
 40
0.05
  1
U-1
  7
VC-TEXTSTYLE0
  0
TEXT
  8
WIRING
  6
CONTINUOUS
 62
     7
  5
822
 10
4.05
 20
6.4
 30
0.0
 40
0.05
  1
U-1
  7
VC-TEXTSTYLE0
  0
TEXT
  8
WIRING
  6
CONTINUOUS
 62
     7
  5
823
 10
3.2
 20
6.9
 30
0.0
 40
0.05
  1
10K        100K
  7
VC-TEXTSTYLE0
  0
TEXT
  8
WIRING
  6
CONTINUOUS
 62
     7
  5
824
 10
2.75
 20
6.15
 30
0.0
 40
0.05
  1
100K
  7
VC-TEXTSTYLE0
  0
LINE
  8
WIRING
  6
CONTINUOUS
 62
     7
  5
825
 10
3.200001
 20
5.400001
 30
0.0
 11
3.200001
 21
5.700001
 31
0.0
  0
TEXT
  8
WIRING
  6
CONTINUOUS
 62
     7
  5
826
 10
2.95
 20
5.85
 30
0.0
 40
0.05
  1
0.1uf
  7
VC-TEXTSTYLE0
  0
TEXT
  8
WIRING
  6
CONTINUOUS
 62
     7
  5
827
 10
3.25
 20
5.5
 30
0.0
 40
0.05
  1
100K
  7
VC-TEXTSTYLE0
  0
TEXT
  8
WIRING
  6
CONTINUOUS
 62
     7
  5
828
 10
3.8
 20
5.75
 30
0.0
 40
0.05
  1
1M
  7
VC-TEXTSTYLE0
  0
TEXT
  8
WIRING
  6
CONTINUOUS
 62
     7
  5
829
 10
2.0
 20
5.4
 30
0.0
 40
0.05
  1
10K        100K
  7
VC-TEXTSTYLE0
  0
TEXT
  8
WIRING
  6
CONTINUOUS
 62
     7
  5
82A
 10
1.55
 20
4.65
 30
0.0
 40
0.05
  1
100K
  7
VC-TEXTSTYLE0
  0
TEXT
  8
WIRING
  6
CONTINUOUS
 62
     7
  5
82B
 10
1.75
 20
4.35
 30
0.0
 40
0.05
  1
0.1uf
  7
VC-TEXTSTYLE0
  0
TEXT
  8
WIRING
  6
CONTINUOUS
 62
     7
  5
82C
 10
2.05
 20
4.0
 30
0.0
 40
0.05
  1
100K
  7
VC-TEXTSTYLE0
  0
TEXT
  8
WIRING
  6
CONTINUOUS
 62
     7
  5
82D
 10
2.6
 20
4.25
 30
0.0
 40
0.05
  1
1M
  7
VC-TEXTSTYLE0
  0
TEXT
  8
WIRING
  6
CONTINUOUS
 62
     7
  5
82E
 10
2.85
 20
4.9
 30
0.0
 40
0.05
  1
U-1
  7
VC-TEXTSTYLE0
  0
TEXT
  8
WIRING
  6
CONTINUOUS
 62
     7
  5
82F
 10
3.2
 20
4.1
 30
0.0
 40
0.05
  1
10K        100K
  7
VC-TEXTSTYLE0
  0
LINE
  8
WIRING
  6
CONTINUOUS
 62
     7
  5
830
 10
3.200002
 20
3.200001
 30
0.0
 11
3.150002
 21
3.200001
 31
0.0
  0
LINE
  8
WIRING
  6
CONTINUOUS
 62
     7
  5
831
 10
3.150002
 20
3.200001
 30
0.0
 11
3.250001
 21
3.200001
 31
0.0
  0
LINE
  8
WIRING
  6
CONTINUOUS
 62
     7
  5
832
 10
3.150002
 20
3.15
 30
0.0
 11
3.250001
 21
3.15
 31
0.0
  0
LINE
  8
WIRING
  6
CONTINUOUS
 62
     7
  5
833
 10
3.200002
 20
3.15
 30
0.0
 11
3.200002
 21
2.9
 31
0.0
  0
LINE
  8
WIRING
  6
CONTINUOUS
 62
     7
  5
834
 10
3.200001
 20
2.600001
 30
0.0
 11
3.200001
 21
2.900001
 31
0.0
  0
TEXT
  8
WIRING
  6
CONTINUOUS
 62
     7
  5
835
 10
2.75
 20
3.35
 30
0.0
 40
0.05
  1
100K
  7
VC-TEXTSTYLE0
  0
TEXT
  8
WIRING
  6
CONTINUOUS
 62
     7
  5
836
 10
2.95
 20
3.05
 30
0.0
 40
0.05
  1
0.1uf
  7
VC-TEXTSTYLE0
  0
TEXT
  8
WIRING
  6
CONTINUOUS
 62
     7
  5
837
 10
3.25
 20
2.7
 30
0.0
 40
0.05
  1
100K
  7
VC-TEXTSTYLE0
  0
TEXT
  8
WIRING
  6
CONTINUOUS
 62
     7
  5
838
 10
3.8
 20
2.95
 30
0.0
 40
0.05
  1
1M
  7
VC-TEXTSTYLE0
  0
TEXT
  8
WIRING
  6
CONTINUOUS
 62
     7
  5
839
 10
4.05
 20
3.6
 30
0.0
 40
0.05
  1
U-1
  7
VC-TEXTSTYLE0
  0
TEXT
  8
WIRING
  6
CONTINUOUS
 62
     7
  5
83A
 10
2.85
 20
2.1
 30
0.0
 40
0.05
  1
U-2
  7
VC-TEXTSTYLE0
  0
TEXT
  8
WIRING
  6
CONTINUOUS
 62
     7
  5
83B
 10
2.0
 20
2.6
 30
0.0
 40
0.05
  1
10K        100K
  7
VC-TEXTSTYLE0
  0
LINE
  8
WIRING
  6
CONTINUOUS
 62
     7
  5
83C
 10
2.000002
 20
1.700002
 30
0.0
 11
1.950002
 21
1.700002
 31
0.0
  0
LINE
  8
WIRING
  6
CONTINUOUS
 62
     7
  5
83D
 10
1.950002
 20
1.700002
 30
0.0
 11
2.050001
 21
1.700002
 31
0.0
  0
LINE
  8
WIRING
  6
CONTINUOUS
 62
     7
  5
83E
 10
1.950002
 20
1.65
 30
0.0
 11
2.050001
 21
1.65
 31
0.0
  0
LINE
  8
WIRING
  6
CONTINUOUS
 62
     7
  5
83F
 10
2.000002
 20
1.65
 30
0.0
 11
2.000002
 21
1.4
 31
0.0
  0
LINE
  8
WIRING
  6
CONTINUOUS
 62
     7
  5
840
 10
2.000002
 20
1.700001
 30
0.0
 11
1.950002
 21
1.700001
 31
0.0
  0
LINE
  8
WIRING
  6
CONTINUOUS
 62
     7
  5
841
 10
1.950002
 20
1.700001
 30
0.0
 11
2.050001
 21
1.700001
 31
0.0
  0
LINE
  8
WIRING
  6
CONTINUOUS
 62
     7
  5
842
 10
1.950002
 20
1.65
 30
0.0
 11
2.050001
 21
1.65
 31
0.0
  0
LINE
  8
WIRING
  6
CONTINUOUS
 62
     7
  5
843
 10
2.000002
 20
1.65
 30
0.0
 11
2.000002
 21
1.4
 31
0.0
  0
TEXT
  8
WIRING
  6
CONTINUOUS
 62
     7
  5
844
 10
1.55
 20
1.85
 30
0.0
 40
0.05
  1
100K
  7
VC-TEXTSTYLE0
  0
TEXT
  8
WIRING
  6
CONTINUOUS
 62
     7
  5
845
 10
1.75
 20
1.55
 30
0.0
 40
0.05
  1
0.1uf
  7
VC-TEXTSTYLE0
  0
TEXT
  8
WIRING
  6
CONTINUOUS
 62
     7
  5
846
 10
2.05
 20
1.2
 30
0.0
 40
0.05
  1
100K
  7
VC-TEXTSTYLE0
  0
LINE
  8
WIRING
  6
CONTINUOUS
 62
     7
  5
847
 10
2.0
 20
1.1
 30
0.0
 11
2.0
 21
1.4
 31
0.0
  0
TEXT
  8
WIRING
  6
CONTINUOUS
 62
     7
  5
848
 10
2.6
 20
1.45
 30
0.0
 40
0.05
  1
1M
  7
VC-TEXTSTYLE0
  0
TEXT
  8
WIRING
  6
CONTINUOUS
 62
     7
  5
849
 10
3.2
 20
1.3
 30
0.0
 40
0.05
  1
10K        100K
  7
VC-TEXTSTYLE0
  0
TEXT
  8
WIRING
  6
CONTINUOUS
 62
     7
  5
84A
 10
4.05
 20
0.8
 30
0.0
 40
0.05
  1
U-2
  7
VC-TEXTSTYLE0
  0
LINE
  8
WIRING
  6
CONTINUOUS
 62
     7
  5
84B
 10
3.200002
 20
0.400002
 30
0.0
 11
3.150002
 21
0.400002
 31
0.0
  0
LINE
  8
WIRING
  6
CONTINUOUS
 62
     7
  5
84C
 10
3.150002
 20
0.400002
 30
0.0
 11
3.250001
 21
0.400002
 31
0.0
  0
LINE
  8
WIRING
  6
CONTINUOUS
 62
     7
  5
84D
 10
3.150002
 20
0.35
 30
0.0
 11
3.250001
 21
0.35
 31
0.0
  0
LINE
  8
WIRING
  6
CONTINUOUS
 62
     7
  5
84E
 10
3.200002
 20
0.35
 30
0.0
 11
3.200002
 21
0.1
 31
0.0
  0
LINE
  8
WIRING
  6
CONTINUOUS
 62
     7
  5
84F
 10
3.200002
 20
0.400001
 30
0.0
 11
3.150002
 21
0.400001
 31
0.0
  0
LINE
  8
WIRING
  6
CONTINUOUS
 62
     7
  5
850
 10
3.150002
 20
0.400001
 30
0.0
 11
3.250001
 21
0.400001
 31
0.0
  0
LINE
  8
WIRING
  6
CONTINUOUS
 62
     7
  5
851
 10
3.150002
 20
0.35
 30
0.0
 11
3.250001
 21
0.35
 31
0.0
  0
LINE
  8
WIRING
  6
CONTINUOUS
 62
     7
  5
852
 10
3.200002
 20
0.35
 30
0.0
 11
3.200002
 21
0.1
 31
0.0
  0
TEXT
  8
WIRING
  6
CONTINUOUS
 62
     7
  5
853
 10
2.75
 20
0.55
 30
0.0
 40
0.05
  1
100K
  7
VC-TEXTSTYLE0
  0
TEXT
  8
WIRING
  6
CONTINUOUS
 62
     7
  5
854
 10
2.95
 20
0.25
 30
0.0
 40
0.05
  1
0.1uf
  7
VC-TEXTSTYLE0
  0
TEXT
  8
WIRING
  6
CONTINUOUS
 62
     7
  5
855
 10
3.25
 20
-0.1
 30
0.0
 40
0.05
  1
100K
  7
VC-TEXTSTYLE0
  0
LINE
  8
WIRING
  6
CONTINUOUS
 62
     7
  5
856
 10
3.2
 20
-0.2
 30
0.0
 11
3.2
 21
0.1
 31
0.0
  0
TEXT
  8
WIRING
  6
CONTINUOUS
 62
     7
  5
857
 10
3.8
 20
0.15
 30
0.0
 40
0.05
  1
1M
  7
VC-TEXTSTYLE0
  0
TEXT
  8
WIRING
  6
CONTINUOUS
 62
     7
  5
858
 10
2.0
 20
-0.2
 30
0.0
 40
0.05
  1
10K        100K
  7
VC-TEXTSTYLE0
  0
LINE
  8
WIRING
  6
CONTINUOUS
 62
     7
  5
859
 10
2.000002
 20
-1.099998
 30
0.0
 11
1.950002
 21
-1.099998
 31
0.0
  0
LINE
  8
WIRING
  6
CONTINUOUS
 62
     7
  5
85A
 10
1.950002
 20
-1.099998
 30
0.0
 11
2.050001
 21
-1.099998
 31
0.0
  0
LINE
  8
WIRING
  6
CONTINUOUS
 62
     7
  5
85B
 10
1.950002
 20
-1.15
 30
0.0
 11
2.050001
 21
-1.15
 31
0.0
  0
LINE
  8
WIRING
  6
CONTINUOUS
 62
     7
  5
85C
 10
2.000002
 20
-1.15
 30
0.0
 11
2.000002
 21
-1.4
 31
0.0
  0
LINE
  8
WIRING
  6
CONTINUOUS
 62
     7
  5
85D
 10
2.000002
 20
-1.099998
 30
0.0
 11
1.950002
 21
-1.099998
 31
0.0
  0
LINE
  8
WIRING
  6
CONTINUOUS
 62
     7
  5
85E
 10
1.950002
 20
-1.099998
 30
0.0
 11
2.050001
 21
-1.099998
 31
0.0
  0
LINE
  8
WIRING
  6
CONTINUOUS
 62
     7
  5
85F
 10
1.950002
 20
-1.15
 30
0.0
 11
2.050001
 21
-1.15
 31
0.0
  0
LINE
  8
WIRING
  6
CONTINUOUS
 62
     7
  5
860
 10
2.000002
 20
-1.15
 30
0.0
 11
2.000002
 21
-1.4
 31
0.0
  0
LINE
  8
WIRING
  6
CONTINUOUS
 62
     7
  5
861
 10
2.000002
 20
-1.099999
 30
0.0
 11
1.950002
 21
-1.099999
 31
0.0
  0
LINE
  8
WIRING
  6
CONTINUOUS
 62
     7
  5
862
 10
1.950002
 20
-1.099999
 30
0.0
 11
2.050001
 21
-1.099999
 31
0.0
  0
LINE
  8
WIRING
  6
CONTINUOUS
 62
     7
  5
863
 10
1.950002
 20
-1.15
 30
0.0
 11
2.050001
 21
-1.15
 31
0.0
  0
LINE
  8
WIRING
  6
CONTINUOUS
 62
     7
  5
864
 10
2.000002
 20
-1.15
 30
0.0
 11
2.000002
 21
-1.4
 31
0.0
  0
TEXT
  8
WIRING
  6
CONTINUOUS
 62
     7
  5
865
 10
1.55
 20
-0.95
 30
0.0
 40
0.05
  1
100K
  7
VC-TEXTSTYLE0
  0
TEXT
  8
WIRING
  6
CONTINUOUS
 62
     7
  5
866
 10
1.75
 20
-1.25
 30
0.0
 40
0.05
  1
0.1uf
  7
VC-TEXTSTYLE0
  0
TEXT
  8
WIRING
  6
CONTINUOUS
 62
     7
  5
867
 10
2.05
 20
-1.6
 30
0.0
 40
0.05
  1
100K
  7
VC-TEXTSTYLE0
  0
LINE
  8
WIRING
  6
CONTINUOUS
 62
     7
  5
868
 10
2.0
 20
-1.7
 30
0.0
 11
2.0
 21
-1.35
 31
0.0
  0
TEXT
  8
WIRING
  6
CONTINUOUS
 62
     7
  5
869
 10
2.6
 20
-1.35
 30
0.0
 40
0.05
  1
1M
  7
VC-TEXTSTYLE0
  0
TEXT
  8
WIRING
  6
CONTINUOUS
 62
     7
  5
86A
 10
2.9
 20
-0.7
 30
0.0
 40
0.05
  1
U-2
  7
VC-TEXTSTYLE0
  0
TEXT
  8
WIRING
  6
CONTINUOUS
 62
     7
  5
86B
 10
3.95
 20
-1.55
 30
0.0
 40
0.05
  1
U-2
  7
VC-TEXTSTYLE0
  0
LINE
  8
WIRING
  6
CONTINUOUS
 62
     7
  5
86C
 10
1.05
 20
5.5
 30
0.0
 11
1.0
 21
5.55
 31
0.0
  0
TEXT
  8
WIRING
  6
CONTINUOUS
 62
     7
  5
86D
 10
0.85
 20
5.4
 30
0.0
 40
0.05
  1
+8 V
  7
VC-TEXTSTYLE0
  0
TEXT
  8
WIRING
  6
CONTINUOUS
 62
     7
  5
86E
 10
0.85
 20
5.3
 30
0.0
 40
0.05
  1
from
  7
VC-TEXTSTYLE0
  0
TEXT
  8
WIRING
  6
CONTINUOUS
 62
     7
  5
86F
 10
0.85
 20
5.2
 30
0.0
 40
0.05
  1
micro
  7
VC-TEXTSTYLE0
  0
TEXT
  8
WIRING
  6
CONTINUOUS
 62
     7
  5
870
 10
0.85
 20
5.1
 30
0.0
 40
0.05
  1
7808
  7
VC-TEXTSTYLE0
  0
TEXT
  8
WIRING
  6
CONTINUOUS
 62
     7
  5
871
 10
2.55
 20
7.65
 30
0.0
 40
0.05
  1
3
  7
VC-TEXTSTYLE0
  0
TEXT
  8
WIRING
  6
CONTINUOUS
 62
     7
  5
872
 10
3.25
 20
7.75
 30
0.0
 40
0.05
  1
1
  7
VC-TEXTSTYLE0
  0
TEXT
  8
WIRING
  6
CONTINUOUS
 62
     7
  5
873
 10
3.05
 20
7.55
 30
0.0
 40
0.05
  1
11
  7
VC-TEXTSTYLE0
  0
TEXT
  8
WIRING
  6
CONTINUOUS
 62
     7
  5
874
 10
3.05
 20
7.85
 30
0.0
 40
0.05
  1
4
  7
VC-TEXTSTYLE0
  0
TEXT
  8
WIRING
  6
CONTINUOUS
 62
     7
  5
875
 10
2.55
 20
7.8
 30
0.0
 40
0.05
  1
2
  7
VC-TEXTSTYLE0
  0
TEXT
  8
WIRING
  6
CONTINUOUS
 62
     7
  5
876
 10
3.7
 20
6.5
 30
0.0
 40
0.05
  1
13
  7
VC-TEXTSTYLE0
  0
TEXT
  8
WIRING
  6
CONTINUOUS
 62
     7
  5
877
 10
3.7
 20
6.35
 30
0.0
 40
0.05
  1
12
  7
VC-TEXTSTYLE0
  0
TEXT
  8
WIRING
  6
CONTINUOUS
 62
     7
  5
878
 10
4.450001
 20
6.45
 30
0.0
 40
0.05
  1
14
  7
VC-TEXTSTYLE0
  0
TEXT
  8
WIRING
  6
CONTINUOUS
 62
     7
  5
879
 10
2.55
 20
5.0
 30
0.0
 40
0.05
  1
9
  7
VC-TEXTSTYLE0
  0
TEXT
  8
WIRING
  6
CONTINUOUS
 62
     7
  5
87A
 10
2.55
 20
4.85
 30
0.0
 40
0.05
  1
10
  7
VC-TEXTSTYLE0
  0
TEXT
  8
WIRING
  6
CONTINUOUS
 62
     7
  5
87B
 10
3.249999
 20
4.95
 30
0.0
 40
0.05
  1
8
  7
VC-TEXTSTYLE0
  0
TEXT
  8
WIRING
  6
CONTINUOUS
 62
     7
  5
87C
 10
3.75
 20
3.7
 30
0.0
 40
0.05
  1
6
  7
VC-TEXTSTYLE0
  0
TEXT
  8
WIRING
  6
CONTINUOUS
 62
     7
  5
87D
 10
3.75
 20
3.55
 30
0.0
 40
0.05
  1
5
  7
VC-TEXTSTYLE0
  0
TEXT
  8
WIRING
  6
CONTINUOUS
 62
     7
  5
87E
 10
4.450001
 20
3.65
 30
0.0
 40
0.05
  1
7
  7
VC-TEXTSTYLE0
  0
TEXT
  8
WIRING
  6
CONTINUOUS
 62
     7
  5
87F
 10
2.55
 20
2.2
 30
0.0
 40
0.05
  1
2
  7
VC-TEXTSTYLE0
  0
TEXT
  8
WIRING
  6
CONTINUOUS
 62
     7
  5
880
 10
2.55
 20
2.05
 30
0.0
 40
0.05
  1
3
  7
VC-TEXTSTYLE0
  0
TEXT
  8
WIRING
  6
CONTINUOUS
 62
     7
  5
881
 10
3.249999
 20
2.15
 30
0.0
 40
0.05
  1
1
  7
VC-TEXTSTYLE0
  0
TEXT
  8
WIRING
  6
CONTINUOUS
 62
     7
  5
882
 10
3.05
 20
2.2
 30
0.0
 40
0.05
  1
4
  7
VC-TEXTSTYLE0
  0
TEXT
  8
WIRING
  6
CONTINUOUS
 62
     7
  5
883
 10
3.05
 20
1.9
 30
0.0
 40
0.05
  1
11
  7
VC-TEXTSTYLE0
  0
TEXT
  8
WIRING
  6
CONTINUOUS
 62
     7
  5
884
 10
3.7
 20
0.9
 30
0.0
 40
0.05
  1
13
  7
VC-TEXTSTYLE0
  0
TEXT
  8
WIRING
  6
CONTINUOUS
 62
     7
  5
885
 10
3.7
 20
0.75
 30
0.0
 40
0.05
  1
12
  7
VC-TEXTSTYLE0
  0
TEXT
  8
WIRING
  6
CONTINUOUS
 62
     7
  5
886
 10
4.45
 20
0.85
 30
0.0
 40
0.05
  1
14
  7
VC-TEXTSTYLE0
  0
TEXT
  8
WIRING
  6
CONTINUOUS
 62
     7
  5
887
 10
2.55
 20
-0.6
 30
0.0
 40
0.05
  1
9
  7
VC-TEXTSTYLE0
  0
TEXT
  8
WIRING
  6
CONTINUOUS
 62
     7
  5
888
 10
2.55
 20
-0.75
 30
0.0
 40
0.05
  1
10
  7
VC-TEXTSTYLE0
  0
TEXT
  8
WIRING
  6
CONTINUOUS
 62
     7
  5
889
 10
3.25
 20
-0.65
 30
0.0
 40
0.05
  1
8
  7
VC-TEXTSTYLE0
  0
TEXT
  8
WIRING
  6
CONTINUOUS
 62
     7
  5
88A
 10
3.7
 20
-1.4
 30
0.0
 40
0.05
  1
6
  7
VC-TEXTSTYLE0
  0
TEXT
  8
WIRING
  6
CONTINUOUS
 62
     7
  5
88B
 10
4.350001
 20
-1.5
 30
0.0
 40
0.05
  1
7
  7
VC-TEXTSTYLE0
  0
TEXT
  8
WIRING
  6
CONTINUOUS
 62
     7
  5
88C
 10
3.7
 20
-1.6
 30
0.0
 40
0.05
  1
5
  7
VC-TEXTSTYLE0
  0
TEXT
  8
WIRING
  6
CONTINUOUS
 62
     7
  5
88D
 10
2.2
 20
10.05
 30
0.0
 40
0.05
  1
U-3
  7
VC-TEXTSTYLE0
  0
TEXT
  8
WIRING
  6
CONTINUOUS
 62
     7
  5
88E
 10
4.05
 20
9.650001
 30
0.0
 40
0.05
  1
Q-1
  7
VC-TEXTSTYLE0
  0
TEXT
  8
WIRING
  6
CONTINUOUS
 62
     7
  5
88F
 10
4.9
 20
9.45
 30
0.0
 40
0.05
  1
Q-2
  7
VC-TEXTSTYLE0
  0
TEXT
  8
WIRING
  6
CONTINUOUS
 62
     7
  5
890
 10
7.95
 20
8.75
 30
0.0
 40
0.05
  1
Q-3
  7
VC-TEXTSTYLE0
  0
TEXT
  8
WIRING
  6
CONTINUOUS
 62
     7
  5
891
 10
7.9
 20
7.7
 30
0.0
 40
0.05
  1
 Q-4
  7
VC-TEXTSTYLE0
  0
TEXT
  8
WIRING
  6
CONTINUOUS
 62
     7
  5
892
 10
7.5
 20
6.05
 30
0.0
 40
0.05
  1
Q-5
  7
VC-TEXTSTYLE0
  0
TEXT
  8
WIRING
  6
CONTINUOUS
 62
     7
  5
893
 10
7.65
 20
6.4
 30
0.0
 40
0.05
  1
K-1
  7
VC-TEXTSTYLE0
  0
TEXT
  8
WIRING
  6
CONTINUOUS
 62
     7
  5
894
 10
6.85
 20
3.75
 30
0.0
 40
0.05
  1
U-5
  7
VC-TEXTSTYLE0
  0
TEXT
  8
WIRING
  6
CONTINUOUS
 62
     7
  5
895
 10
7.35
 20
2.5
 30
0.0
 40
0.05
  1
U-6
  7
VC-TEXTSTYLE0
  0
TEXT
  8
WIRING
  6
CONTINUOUS
 62
     7
  5
896
 10
7.35
 20
1.35
 30
0.0
 40
0.05
  1
U-7
  7
VC-TEXTSTYLE0
  0
TEXT
  8
WIRING
  6
CONTINUOUS
 62
     7
  5
897
 10
8.95
 20
0.8
 30
0.0
 40
0.05
  1
RS-232
  7
VC-TEXTSTYLE0
  0
TEXT
  8
WIRING
  6
CONTINUOUS
 62
     7
  5
898
 10
8.95
 20
0.7
 30
0.0
 40
0.05
  1
Modem
  7
VC-TEXTSTYLE0
  0
TEXT
  8
WIRING
  6
CONTINUOUS
 62
     7
  5
899
 10
8.95
 20
0.6
 30
0.0
 40
0.05
  1
Port
  7
VC-TEXTSTYLE0
  0
TEXT
  8
WIRING
  6
CONTINUOUS
 62
     7
  5
89A
 10
8.5
 20
-1.25
 30
0.0
 40
0.05
  1
To DB-25 BE Micro IO
  7
VC-TEXTSTYLE0
  0
TEXT
  8
WIRING
  6
CONTINUOUS
 62
     7
  5
89B
 10
3.7
 20
9.55
 30
0.0
 40
0.05
  1
10K
  7
VC-TEXTSTYLE0
  0
TEXT
  8
WIRING
  6
CONTINUOUS
 62
     7
  5
89C
 10
4.65
 20
9.25
 30
0.0
 40
0.05
  1
10K
  7
VC-TEXTSTYLE0
  0
TEXT
  8
WIRING
  6
CONTINUOUS
 62
     7
  5
89D
 10
5.25
 20
8.7
 30
0.0
 40
0.05
  1
3.3K X 3
  7
VC-TEXTSTYLE0
  0
TEXT
  8
WIRING
  6
CONTINUOUS
 62
     7
  5
89E
 10
6.85
 20
8.6
 30
0.0
 40
0.05
  1
10K X 3
  7
VC-TEXTSTYLE0
  0
TEXT
  8
WIRING
  6
CONTINUOUS
 62
     7
  5
89F
 10
3.15
 20
9.95
 30
0.0
 40
0.05
  1
100K X 3
  7
VC-TEXTSTYLE0
  0
TEXT
  8
WIRING
  6
CONTINUOUS
 62
     7
  5
8A0
 10
1.4
 20
9.900001
 30
0.0
 40
0.05
  1
3.3 K X 3
  7
VC-TEXTSTYLE0
  0
TEXT
  8
WIRING
  6
CONTINUOUS
 62
     7
  5
8A1
 10
4.8
 20
-1.65
 30
0.0
 40
0.1
  1
Blue Earth Micro Remote Control Interface
  7
VC-TEXTSTYLE0
  0
TEXT
  8
WIRING
  6
CONTINUOUS
 62
     7
  5
8A2
 10
4.8
 20
-1.85
 30
0.0
 40
0.1
  1
Aug. 29, 1993
  7
VC-TEXTSTYLE0
  0
TEXT
  8
WIRING
  6
CONTINUOUS
 62
     7
  5
8A3
 10
6.7
 20
-1.85
 30
0.0
 40
0.05
  1
Copyright 1993 by H. Douglas Lung
  7
VC-TEXTSTYLE0
  0
TEXT
  8
WIRING
  6
CONTINUOUS
 62
     7
  5
8A4
 10
5.8
 20
9.75
 30
0.0
 40
0.05
  1
Construction Notes:
  7
VC-TEXTSTYLE0
  0
TEXT
  8
WIRING
  6
CONTINUOUS
 62
     7
  5
8A5
 10
5.8
 20
9.65
 30
0.0
 40
0.05
  1
1) All diodes 1N4004 or equiv.
  7
VC-TEXTSTYLE0
  0
TEXT
  8
WIRING
  6
CONTINUOUS
 62
     7
  5
8A6
 10
5.8
 20
9.449999
 30
0.0
 40
0.05
  1
3) U-1,U-2 are National LMC660CN
  7
VC-TEXTSTYLE0
  0
TEXT
  8
WIRING
  6
CONTINUOUS
 62
     7
  5
8A7
 10
5.8
 20
9.349998
 30
0.0
 40
0.05
  1
4) U-3,U-4 are NEC PS2502-4 optoisolators
  7
VC-TEXTSTYLE0
  0
TEXT
  8
WIRING
  6
CONTINUOUS
 62
     7
  5
8A8
 10
5.8
 20
9.249998
 30
0.0
 40
0.05
  1
5) Refer to data sheets for U-5, U-6, U-7 pinouts
  7
VC-TEXTSTYLE0
  0
TEXT
  8
WIRING
  6
CONTINUOUS
 62
     7
  5
8A9
 10
5.8
 20
9.549999
 30
0.0
 40
0.05
  1
2) Resistors 1/8 W or higher unless noted
  7
VC-TEXTSTYLE0
  0
TEXT
  8
WIRING
  6
CONTINUOUS
 62
     7
  5
8AA
 10
5.8
 20
9.149998
 30
0.0
 40
0.05
  1
6) Headers and IC's are shown from the top
  7
VC-TEXTSTYLE0
  0
TEXT
  8
WIRING
  6
CONTINUOUS
 62
     7
  5
8AB
 10
6.15
 20
8.75
 30
0.0
 40
0.05
  1
U-4
  7
VC-TEXTSTYLE0
  0
TEXT
  8
WIRING
  6
CONTINUOUS
 62
     7
  5
8AC
 10
4.95
 20
8.95
 30
0.0
 40
0.05
  1
2N2907
  7
VC-TEXTSTYLE0
  0
TEXT
  8
WIRING
  6
CONTINUOUS
 62
     7
  5
8AD
 10
6.2
 20
4.85
 30
0.0
 40
0.05
  1
1/2 w.
  7
VC-TEXTSTYLE0
  0
TEXT
  8
WIRING
  6
CONTINUOUS
 62
     7
  5
8AE
 10
8.9
 20
5.6
 30
0.0
 40
0.05
  1
47 ohm
  7
VC-TEXTSTYLE0
  0
TEXT
  8
WIRING
  6
CONTINUOUS
 62
     7
  5
8AF
 10
8.900001
 20
5.5
 30
0.0
 40
0.05
  1
1 watt
  7
VC-TEXTSTYLE0
  0
TEXT
  8
WIRING
  6
CONTINUOUS
 62
     7
  5
8B0
 10
8.650001
 20
6.15
 30
0.0
 40
0.05
  1
Relay is 12V 50mA
  7
VC-TEXTSTYLE0
  0
TEXT
  8
WIRING
  6
CONTINUOUS
 62
     7
  5
8B1
 10
7.5
 20
3.3
 30
0.0
 40
0.05
  1
+
  7
VC-TEXTSTYLE0
  0
LINE
  8
WIRING
  6
CONTINUOUS
 62
     7
  5
8B2
 10
7.05
 20
3.4
 30
0.0
 11
7.05
 21
3.2
 31
0.0
  0
LINE
  8
WIRING
  6
CONTINUOUS
 62
     7
  5
8B3
 10
7.05
 20
3.2
 30
0.0
 11
7.0
 21
3.2
 31
0.0
  0
LINE
  8
WIRING
  6
CONTINUOUS
 62
     7
  5
8B4
 10
7.0
 20
3.2
 30
0.0
 11
7.05
 21
3.1
 31
0.0
  0
LINE
  8
WIRING
  6
CONTINUOUS
 62
     7
  5
8B5
 10
7.05
 20
3.1
 30
0.0
 11
7.1
 21
3.2
 31
0.0
  0
LINE
  8
WIRING
  6
CONTINUOUS
 62
     7
  5
8B6
 10
7.1
 20
3.2
 30
0.0
 11
7.05
 21
3.2
 31
0.0
  0
LINE
  8
WIRING
  6
CONTINUOUS
 62
     7
  5
8B7
 10
6.6
 20
2.25
 30
0.0
 11
6.4
 21
2.25
 31
0.0
  0
LINE
  8
WIRING
  6
CONTINUOUS
 62
     7
  5
8B8
 10
6.4
 20
2.25
 30
0.0
 11
6.4
 21
2.35
 31
0.0
  0
LINE
  8
WIRING
  6
CONTINUOUS
 62
     7
  5
8B9
 10
6.4
 20
2.25
 30
0.0
 11
6.4
 21
2.15
 31
0.0
  0
LINE
  8
WIRING
  6
CONTINUOUS
 62
     7
  5
8BA
 10
6.3
 20
2.35
 30
0.0
 11
6.3
 21
2.15
 31
0.0
  0
LINE
  8
WIRING
  6
CONTINUOUS
 62
     7
  5
8BB
 10
6.3
 20
2.25
 30
0.0
 11
6.1
 21
2.25
 31
0.0
  0
LINE
  8
WIRING
  6
CONTINUOUS
 62
     7
  5
8BC
 10
6.1
 20
2.25
 30
0.0
 11
6.1
 21
2.1
 31
0.0
  0
LINE
  8
WIRING
  6
CONTINUOUS
 62
     7
  5
8BD
 10
6.1
 20
2.1
 30
0.0
 11
6.05
 21
2.1
 31
0.0
  0
LINE
  8
WIRING
  6
CONTINUOUS
 62
     7
  5
8BE
 10
6.05
 20
2.1
 30
0.0
 11
6.1
 21
2.0
 31
0.0
  0
LINE
  8
WIRING
  6
CONTINUOUS
 62
     7
  5
8BF
 10
6.1
 20
2.0
 30
0.0
 11
6.15
 21
2.1
 31
0.0
  0
LINE
  8
WIRING
  6
CONTINUOUS
 62
     7
  5
8C0
 10
6.15
 20
2.1
 30
0.0
 11
6.1
 21
2.1
 31
0.0
  0
TEXT
  8
WIRING
  6
CONTINUOUS
 62
     7
  5
8C1
 10
6.45
 20
2.3
 30
0.0
 40
0.05
  1
+
  7
VC-TEXTSTYLE0
  0
TEXT
  8
WIRING
  6
CONTINUOUS
 62
     7
  5
8C2
 10
6.3
 20
2.05
 30
0.0
 40
0.05
  1
1.0 uf
  7
VC-TEXTSTYLE0
  0
LINE
  8
WIRING
  6
CONTINUOUS
 62
     7
  5
8C3
 10
6.6
 20
3.45
 30
0.0
 11
6.4
 21
3.45
 31
0.0
  0
LINE
  8
WIRING
  6
CONTINUOUS
 62
     7
  5
8C4
 10
6.4
 20
3.45
 30
0.0
 11
6.4
 21
3.55
 31
0.0
  0
LINE
  8
WIRING
  6
CONTINUOUS
 62
     7
  5
8C5
 10
6.4
 20
3.45
 30
0.0
 11
6.4
 21
3.35
 31
0.0
  0
LINE
  8
WIRING
  6
CONTINUOUS
 62
     7
  5
8C6
 10
6.3
 20
3.55
 30
0.0
 11
6.3
 21
3.35
 31
0.0
  0
LINE
  8
WIRING
  6
CONTINUOUS
 62
     7
  5
8C7
 10
6.3
 20
3.45
 30
0.0
 11
6.1
 21
3.45
 31
0.0
  0
LINE
  8
WIRING
  6
CONTINUOUS
 62
     7
  5
8C8
 10
6.1
 20
3.45
 30
0.0
 11
6.1
 21
3.3
 31
0.0
  0
LINE
  8
WIRING
  6
CONTINUOUS
 62
     7
  5
8C9
 10
6.1
 20
3.3
 30
0.0
 11
6.05
 21
3.3
 31
0.0
  0
LINE
  8
WIRING
  6
CONTINUOUS
 62
     7
  5
8CA
 10
6.05
 20
3.3
 30
0.0
 11
6.1
 21
3.2
 31
0.0
  0
LINE
  8
WIRING
  6
CONTINUOUS
 62
     7
  5
8CB
 10
6.1
 20
3.2
 30
0.0
 11
6.15
 21
3.3
 31
0.0
  0
LINE
  8
WIRING
  6
CONTINUOUS
 62
     7
  5
8CC
 10
6.15
 20
3.3
 30
0.0
 11
6.1
 21
3.3
 31
0.0
  0
TEXT
  8
WIRING
  6
CONTINUOUS
 62
     7
  5
8CD
 10
6.45
 20
3.5
 30
0.0
 40
0.05
  1
+
  7
VC-TEXTSTYLE0
  0
TEXT
  8
WIRING
  6
CONTINUOUS
 62
     7
  5
8CE
 10
6.3
 20
3.25
 30
0.0
 40
0.05
  1
1.0 uf
  7
VC-TEXTSTYLE0
  0
TEXT
  8
WIRING
  6
CONTINUOUS
 62
     7
  5
8CF
 10
7.6
 20
3.2
 30
0.0
 40
0.05
  1
1.0 uf
  7
VC-TEXTSTYLE0
  0
LINE
  8
WIRING
  6
CONTINUOUS
 62
     7
  5
8D0
 10
7.45
 20
2.1
 30
0.0
 11
7.35
 21
2.1
 31
0.0
  0
LINE
  8
WIRING
  6
CONTINUOUS
 62
     7
  5
8D1
 10
7.45
 20
2.1
 30
0.0
 11
7.55
 21
2.1
 31
0.0
  0
LINE
  8
WIRING
  6
CONTINUOUS
 62
     7
  5
8D2
 10
7.35
 20
2.0
 30
0.0
 11
7.55
 21
2.0
 31
0.0
  0
LINE
  8
WIRING
  6
CONTINUOUS
 62
     7
  5
8D3
 10
7.45
 20
2.0
 30
0.0
 11
7.45
 21
1.75
 31
0.0
  0
LINE
  8
WIRING
  6
CONTINUOUS
 62
     7
  5
8D4
 10
7.45
 20
1.75
 30
0.0
 11
7.4
 21
1.75
 31
0.0
  0
LINE
  8
WIRING
  6
CONTINUOUS
 62
     7
  5
8D5
 10
7.4
 20
1.75
 30
0.0
 11
7.45
 21
1.65
 31
0.0
  0
LINE
  8
WIRING
  6
CONTINUOUS
 62
     7
  5
8D6
 10
7.45
 20
1.65
 30
0.0
 11
7.5
 21
1.75
 31
0.0
  0
LINE
  8
WIRING
  6
CONTINUOUS
 62
     7
  5
8D7
 10
7.5
 20
1.75
 30
0.0
 11
7.45
 21
1.75
 31
0.0
  0
TEXT
  8
WIRING
  6
CONTINUOUS
 62
     7
  5
8D8
 10
7.5
 20
2.15
 30
0.0
 40
0.05
  1
+
  7
VC-TEXTSTYLE0
  0
TEXT
  8
WIRING
  6
CONTINUOUS
 62
     7
  5
8D9
 10
7.6
 20
2.05
 30
0.0
 40
0.05
  1
1.0 uf
  7
VC-TEXTSTYLE0
  0
LINE
  8
WIRING
  6
CONTINUOUS
 62
     7
  5
8DA
 10
7.05
 20
2.0
 30
0.0
 11
7.0
 21
2.0
 31
0.0
  0
LINE
  8
WIRING
  6
CONTINUOUS
 62
     7
  5
8DB
 10
7.0
 20
2.0
 30
0.0
 11
7.05
 21
1.9
 31
0.0
  0
LINE
  8
WIRING
  6
CONTINUOUS
 62
     7
  5
8DC
 10
7.05
 20
1.9
 30
0.0
 11
7.1
 21
2.0
 31
0.0
  0
LINE
  8
WIRING
  6
CONTINUOUS
 62
     7
  5
8DD
 10
7.1
 20
2.0
 30
0.0
 11
7.05
 21
2.0
 31
0.0
  0
LINE
  8
WIRING
  6
CONTINUOUS
 62
     7
  5
8DE
 10
7.05
 20
2.0
 30
0.0
 11
7.05
 21
2.15
 31
0.0
  0
LINE
  8
WIRING
  6
CONTINUOUS
 62
     7
  5
8DF
 10
7.05
 20
2.15
 30
0.0
 11
7.05
 21
2.25
 31
0.0
  0
LINE
  8
WIRING
  6
CONTINUOUS
 62
     7
  5
8E0
 10
7.05
 20
0.85
 30
0.0
 11
7.0
 21
0.85
 31
0.0
  0
LINE
  8
WIRING
  6
CONTINUOUS
 62
     7
  5
8E1
 10
7.0
 20
0.85
 30
0.0
 11
7.05
 21
0.75
 31
0.0
  0
LINE
  8
WIRING
  6
CONTINUOUS
 62
     7
  5
8E2
 10
7.05
 20
0.75
 30
0.0
 11
7.1
 21
0.85
 31
0.0
  0
LINE
  8
WIRING
  6
CONTINUOUS
 62
     7
  5
8E3
 10
7.1
 20
0.85
 30
0.0
 11
7.05
 21
0.85
 31
0.0
  0
LINE
  8
WIRING
  6
CONTINUOUS
 62
     7
  5
8E4
 10
7.05
 20
0.95
 30
0.0
 11
7.05
 21
1.0
 31
0.0
  0
LINE
  8
WIRING
  6
CONTINUOUS
 62
     7
  5
8E5
 10
7.05
 20
0.85
 30
0.0
 11
7.05
 21
0.95
 31
0.0
  0
LINE
  8
WIRING
  6
CONTINUOUS
 62
     7
  5
8E6
 10
6.65
 20
1.5
 30
0.0
 11
6.6
 21
1.5
 31
0.0
  0
LINE
  8
WIRING
  6
CONTINUOUS
 62
     7
  5
8E7
 10
6.6
 20
1.35
 30
0.0
 11
6.4
 21
1.35
 31
0.0
  0
LINE
  8
WIRING
  6
CONTINUOUS
 62
     7
  5
8E8
 10
6.4
 20
1.35
 30
0.0
 11
6.4
 21
1.45
 31
0.0
  0
LINE
  8
WIRING
  6
CONTINUOUS
 62
     7
  5
8E9
 10
6.4
 20
1.35
 30
0.0
 11
6.4
 21
1.25
 31
0.0
  0
LINE
  8
WIRING
  6
CONTINUOUS
 62
     7
  5
8EA
 10
6.3
 20
1.45
 30
0.0
 11
6.3
 21
1.25
 31
0.0
  0
LINE
  8
WIRING
  6
CONTINUOUS
 62
     7
  5
8EB
 10
6.3
 20
1.35
 30
0.0
 11
6.1
 21
1.35
 31
0.0
  0
LINE
  8
WIRING
  6
CONTINUOUS
 62
     7
  5
8EC
 10
6.1
 20
1.35
 30
0.0
 11
6.1
 21
1.2
 31
0.0
  0
LINE
  8
WIRING
  6
CONTINUOUS
 62
     7
  5
8ED
 10
6.1
 20
1.1
 30
0.0
 11
6.15
 21
1.2
 31
0.0
  0
LINE
  8
WIRING
  6
CONTINUOUS
 62
     7
  5
8EE
 10
6.15
 20
1.2
 30
0.0
 11
6.1
 21
1.2
 31
0.0
  0
TEXT
  8
WIRING
  6
CONTINUOUS
 62
     7
  5
8EF
 10
6.45
 20
1.4
 30
0.0
 40
0.05
  1
+
  7
VC-TEXTSTYLE0
  0
TEXT
  8
WIRING
  6
CONTINUOUS
 62
     7
  5
8F0
 10
6.3
 20
1.15
 30
0.0
 40
0.05
  1
1.0 uf
  7
VC-TEXTSTYLE0
  0
LINE
  8
WIRING
  6
CONTINUOUS
 62
     7
  5
8F1
 10
6.1
 20
1.1
 30
0.0
 11
6.05
 21
1.2
 31
0.0
  0
LINE
  8
WIRING
  6
CONTINUOUS
 62
     7
  5
8F2
 10
6.05
 20
1.2
 30
0.0
 11
6.1
 21
1.2
 31
0.0
  0
TEXT
  8
WIRING
  6
CONTINUOUS
 62
     7
  5
8F3
 10
7.5
 20
1.0
 30
0.0
 40
0.05
  1
+
  7
VC-TEXTSTYLE0
  0
TEXT
  8
WIRING
  6
CONTINUOUS
 62
     7
  5
8F4
 10
7.25
 20
0.75
 30
0.0
 40
0.05
  1
1.0
  7
VC-TEXTSTYLE0
  0
TEXT
  8
WIRING
  6
CONTINUOUS
 62
     7
  5
8F5
 10
7.25
 20
0.65
 30
0.0
 40
0.05
  1
uf.
  7
VC-TEXTSTYLE0
  0
TEXT
  8
WIRING
  6
CONTINUOUS
 62
     7
  5
8F6
 10
5.8
 20
9.05
 30
0.0
 40
0.05
  1
7) All capacitors rated 16 WVDC or higher
  7
VC-TEXTSTYLE0
  0
LINE
  8
WIRING
  6
CONTINUOUS
 62
    11
  5
8F7
 10
2.67
 20
8.000001
 30
0.0
 11
2.619999
 21
8.000001
 31
0.0
  0
LINE
  8
WIRING
  6
CONTINUOUS
 62
    11
  5
8F8
 10
2.619999
 20
8.000001
 30
0.0
 11
2.645
 21
8.050001
 31
0.0
  0
LINE
  8
WIRING
  6
CONTINUOUS
 62
    11
  5
8F9
 10
2.645
 20
8.050001
 30
0.0
 11
2.67
 21
8.000001
 31
0.0
  0
LINE
  8
WIRING
  6
CONTINUOUS
 62
    11
  5
8FA
 10
3.87
 20
6.700001
 30
0.0
 11
3.819999
 21
6.700001
 31
0.0
  0
LINE
  8
WIRING
  6
CONTINUOUS
 62
    11
  5
8FB
 10
3.819999
 20
6.700001
 30
0.0
 11
3.845
 21
6.750001
 31
0.0
  0
LINE
  8
WIRING
  6
CONTINUOUS
 62
    11
  5
8FC
 10
3.845
 20
6.750001
 30
0.0
 11
3.87
 21
6.700001
 31
0.0
  0
LINE
  8
WIRING
  6
CONTINUOUS
 62
    11
  5
8FD
 10
2.67
 20
5.200001
 30
0.0
 11
2.619999
 21
5.200001
 31
0.0
  0
LINE
  8
WIRING
  6
CONTINUOUS
 62
    11
  5
8FE
 10
2.619999
 20
5.200001
 30
0.0
 11
2.645
 21
5.25
 31
0.0
  0
LINE
  8
WIRING
  6
CONTINUOUS
 62
    11
  5
8FF
 10
2.645
 20
5.25
 30
0.0
 11
2.67
 21
5.200001
 31
0.0
  0
LINE
  8
WIRING
  6
CONTINUOUS
 62
    11
  5
900
 10
3.87
 20
3.900001
 30
0.0
 11
3.819999
 21
3.900001
 31
0.0
  0
LINE
  8
WIRING
  6
CONTINUOUS
 62
    11
  5
901
 10
3.819999
 20
3.900001
 30
0.0
 11
3.845
 21
3.950001
 31
0.0
  0
LINE
  8
WIRING
  6
CONTINUOUS
 62
    11
  5
902
 10
3.845
 20
3.950001
 30
0.0
 11
3.87
 21
3.900001
 31
0.0
  0
LINE
  8
WIRING
  6
CONTINUOUS
 62
    11
  5
903
 10
2.67
 20
2.400001
 30
0.0
 11
2.619999
 21
2.400001
 31
0.0
  0
LINE
  8
WIRING
  6
CONTINUOUS
 62
    11
  5
904
 10
2.619999
 20
2.400001
 30
0.0
 11
2.645
 21
2.45
 31
0.0
  0
LINE
  8
WIRING
  6
CONTINUOUS
 62
    11
  5
905
 10
2.645
 20
2.45
 30
0.0
 11
2.67
 21
2.400001
 31
0.0
  0
LINE
  8
WIRING
  6
CONTINUOUS
 62
    11
  5
906
 10
3.87
 20
1.100001
 30
0.0
 11
3.819999
 21
1.100001
 31
0.0
  0
LINE
  8
WIRING
  6
CONTINUOUS
 62
    11
  5
907
 10
3.819999
 20
1.100001
 30
0.0
 11
3.845
 21
1.150001
 31
0.0
  0
LINE
  8
WIRING
  6
CONTINUOUS
 62
    11
  5
908
 10
3.845
 20
1.150001
 30
0.0
 11
3.87
 21
1.100001
 31
0.0
  0
LINE
  8
WIRING
  6
CONTINUOUS
 62
    11
  5
909
 10
2.67
 20
-0.4
 30
0.0
 11
2.619999
 21
-0.4
 31
0.0
  0
LINE
  8
WIRING
  6
CONTINUOUS
 62
    11
  5
90A
 10
2.619999
 20
-0.4
 30
0.0
 11
2.645
 21
-0.35
 31
0.0
  0
LINE
  8
WIRING
  6
CONTINUOUS
 62
    11
  5
90B
 10
2.645
 20
-0.35
 30
0.0
 11
2.67
 21
-0.4
 31
0.0
  0
LINE
  8
COMPON
  6
CONTINUOUS
 62
     7
  5
90C
 10
6.175002
 20
8.575001
 30
0.0
 11
6.125002
 21
8.575001
 31
0.0
  0
LINE
  8
COMPON
  6
CONTINUOUS
 62
     7
  5
90D
 10
6.125002
 20
8.575001
 30
0.0
 11
6.150002
 21
8.525001
 31
0.0
  0
LINE
  8
COMPON
  6
CONTINUOUS
 62
     7
  5
90E
 10
6.150002
 20
8.525001
 30
0.0
 11
6.125002
 21
8.575001
 31
0.0
  0
LINE
  8
COMPON
  6
CONTINUOUS
 62
     7
  5
90F
 10
6.125002
 20
8.575001
 30
0.0
 11
6.175002
 21
8.575001
 31
0.0
  0
LINE
  8
COMPON
  6
CONTINUOUS
 62
     7
  5
910
 10
6.175002
 20
8.575001
 30
0.0
 11
6.150002
 21
8.525001
 31
0.0
  0
LINE
  8
COMPON
  6
CONTINUOUS
 62
     7
  5
911
 10
6.150002
 20
8.525001
 30
0.0
 11
6.125002
 21
8.575001
 31
0.0
  0
LINE
  8
COMPON
  6
CONTINUOUS
 62
     7
  5
912
 10
6.125002
 20
8.575001
 30
0.0
 11
6.175002
 21
8.575001
 31
0.0
  0
LINE
  8
COMPON
  6
CONTINUOUS
 62
     7
  5
913
 10
6.46313
 20
8.545712
 30
0.0
 11
6.454291
 21
8.536873
 31
0.0
  0
LINE
  8
COMPON
  6
CONTINUOUS
 62
     7
  5
914
 10
6.454291
 20
8.536873
 30
0.0
 11
6.471968
 21
8.528034
 31
0.0
  0
LINE
  8
COMPON
  6
CONTINUOUS
 62
     7
  5
915
 10
6.471968
 20
8.528034
 30
0.0
 11
6.46313
 21
8.545712
 31
0.0
  0
LINE
  8
COMPON
  6
CONTINUOUS
 62
     7
  5
916
 10
6.497099
 20
8.502903
 30
0.0
 11
6.488261
 21
8.520581
 31
0.0
  0
LINE
  8
COMPON
  6
CONTINUOUS
 62
     7
  5
917
 10
6.488261
 20
8.520581
 30
0.0
 11
6.479422
 21
8.511742
 31
0.0
  0
LINE
  8
COMPON
  6
CONTINUOUS
 62
     7
  5
918
 10
6.479422
 20
8.511742
 30
0.0
 11
6.497099
 21
8.502903
 31
0.0
  0
LINE
  8
COMPON
  6
CONTINUOUS
 62
     7
  5
919
 10
6.313128
 20
8.58321
 30
0.0
 11
6.304289
 21
8.574371
 31
0.0
  0
LINE
  8
COMPON
  6
CONTINUOUS
 62
     7
  5
91A
 10
6.304289
 20
8.574371
 30
0.0
 11
6.321967
 21
8.565532
 31
0.0
  0
LINE
  8
COMPON
  6
CONTINUOUS
 62
     7
  5
91B
 10
6.321967
 20
8.565532
 30
0.0
 11
6.313128
 21
8.58321
 31
0.0
  0
LINE
  8
COMPON
  6
CONTINUOUS
 62
     7
  5
91C
 10
6.313128
 20
8.545712
 30
0.0
 11
6.304289
 21
8.536873
 31
0.0
  0
LINE
  8
COMPON
  6
CONTINUOUS
 62
     7
  5
91D
 10
6.304289
 20
8.536873
 30
0.0
 11
6.321967
 21
8.528034
 31
0.0
  0
LINE
  8
COMPON
  6
CONTINUOUS
 62
     7
  5
91E
 10
6.321967
 20
8.528034
 30
0.0
 11
6.313128
 21
8.545712
 31
0.0
  0
LINE
  8
COMPON
  6
CONTINUOUS
 62
     7
  5
91F
 10
6.175002
 20
8.375
 30
0.0
 11
6.125002
 21
8.375
 31
0.0
  0
LINE
  8
COMPON
  6
CONTINUOUS
 62
     7
  5
920
 10
6.125002
 20
8.375
 30
0.0
 11
6.150002
 21
8.325
 31
0.0
  0
LINE
  8
COMPON
  6
CONTINUOUS
 62
     7
  5
921
 10
6.150002
 20
8.325
 30
0.0
 11
6.125002
 21
8.375
 31
0.0
  0
LINE
  8
COMPON
  6
CONTINUOUS
 62
     7
  5
922
 10
6.125002
 20
8.375
 30
0.0
 11
6.175002
 21
8.375
 31
0.0
  0
LINE
  8
COMPON
  6
CONTINUOUS
 62
     7
  5
923
 10
6.175002
 20
8.375
 30
0.0
 11
6.150002
 21
8.325
 31
0.0
  0
LINE
  8
COMPON
  6
CONTINUOUS
 62
     7
  5
924
 10
6.150002
 20
8.325
 30
0.0
 11
6.125002
 21
8.375
 31
0.0
  0
LINE
  8
COMPON
  6
CONTINUOUS
 62
     7
  5
925
 10
6.125002
 20
8.375
 30
0.0
 11
6.175002
 21
8.375
 31
0.0
  0
LINE
  8
COMPON
  6
CONTINUOUS
 62
     7
  5
926
 10
6.46313
 20
8.345711
 30
0.0
 11
6.454291
 21
8.336872
 31
0.0
  0
LINE
  8
COMPON
  6
CONTINUOUS
 62
     7
  5
927
 10
6.454291
 20
8.336872
 30
0.0
 11
6.471968
 21
8.328033
 31
0.0
  0
LINE
  8
COMPON
  6
CONTINUOUS
 62
     7
  5
928
 10
6.471968
 20
8.328033
 30
0.0
 11
6.46313
 21
8.345711
 31
0.0
  0
LINE
  8
COMPON
  6
CONTINUOUS
 62
     7
  5
929
 10
6.497099
 20
8.302902
 30
0.0
 11
6.488261
 21
8.32058
 31
0.0
  0
LINE
  8
COMPON
  6
CONTINUOUS
 62
     7
  5
92A
 10
6.488261
 20
8.32058
 30
0.0
 11
6.479422
 21
8.311741
 31
0.0
  0
LINE
  8
COMPON
  6
CONTINUOUS
 62
     7
  5
92B
 10
6.479422
 20
8.311741
 30
0.0
 11
6.497099
 21
8.302902
 31
0.0
  0
LINE
  8
COMPON
  6
CONTINUOUS
 62
     7
  5
92C
 10
6.313128
 20
8.383211
 30
0.0
 11
6.304289
 21
8.374372
 31
0.0
  0
LINE
  8
COMPON
  6
CONTINUOUS
 62
     7
  5
92D
 10
6.304289
 20
8.374372
 30
0.0
 11
6.321967
 21
8.365533
 31
0.0
  0
LINE
  8
COMPON
  6
CONTINUOUS
 62
     7
  5
92E
 10
6.321967
 20
8.365533
 30
0.0
 11
6.313128
 21
8.383211
 31
0.0
  0
LINE
  8
COMPON
  6
CONTINUOUS
 62
     7
  5
92F
 10
6.313128
 20
8.345711
 30
0.0
 11
6.304289
 21
8.336872
 31
0.0
  0
LINE
  8
COMPON
  6
CONTINUOUS
 62
     7
  5
930
 10
6.304289
 20
8.336872
 30
0.0
 11
6.321967
 21
8.328033
 31
0.0
  0
LINE
  8
COMPON
  6
CONTINUOUS
 62
     7
  5
931
 10
6.321967
 20
8.328033
 30
0.0
 11
6.313128
 21
8.345711
 31
0.0
  0
LINE
  8
COMPON
  6
CONTINUOUS
 62
     7
  5
932
 10
6.175002
 20
8.174999
 30
0.0
 11
6.125002
 21
8.174999
 31
0.0
  0
LINE
  8
COMPON
  6
CONTINUOUS
 62
     7
  5
933
 10
6.125002
 20
8.174999
 30
0.0
 11
6.150002
 21
8.124999
 31
0.0
  0
LINE
  8
COMPON
  6
CONTINUOUS
 62
     7
  5
934
 10
6.150002
 20
8.124999
 30
0.0
 11
6.125002
 21
8.174999
 31
0.0
  0
LINE
  8
COMPON
  6
CONTINUOUS
 62
     7
  5
935
 10
6.125002
 20
8.174999
 30
0.0
 11
6.175002
 21
8.174999
 31
0.0
  0
LINE
  8
COMPON
  6
CONTINUOUS
 62
     7
  5
936
 10
6.175002
 20
8.174999
 30
0.0
 11
6.150002
 21
8.124999
 31
0.0
  0
LINE
  8
COMPON
  6
CONTINUOUS
 62
     7
  5
937
 10
6.150002
 20
8.124999
 30
0.0
 11
6.125002
 21
8.174999
 31
0.0
  0
LINE
  8
COMPON
  6
CONTINUOUS
 62
     7
  5
938
 10
6.125002
 20
8.174999
 30
0.0
 11
6.175002
 21
8.174999
 31
0.0
  0
LINE
  8
COMPON
  6
CONTINUOUS
 62
     7
  5
939
 10
6.46313
 20
8.14571
 30
0.0
 11
6.454291
 21
8.136871
 31
0.0
  0
LINE
  8
COMPON
  6
CONTINUOUS
 62
     7
  5
93A
 10
6.454291
 20
8.136871
 30
0.0
 11
6.471968
 21
8.128032
 31
0.0
  0
LINE
  8
COMPON
  6
CONTINUOUS
 62
     7
  5
93B
 10
6.471968
 20
8.128032
 30
0.0
 11
6.46313
 21
8.14571
 31
0.0
  0
LINE
  8
COMPON
  6
CONTINUOUS
 62
     7
  5
93C
 10
6.497099
 20
8.102903
 30
0.0
 11
6.488261
 21
8.120581
 31
0.0
  0
LINE
  8
COMPON
  6
CONTINUOUS
 62
     7
  5
93D
 10
6.488261
 20
8.120581
 30
0.0
 11
6.479422
 21
8.111742
 31
0.0
  0
LINE
  8
COMPON
  6
CONTINUOUS
 62
     7
  5
93E
 10
6.479422
 20
8.111742
 30
0.0
 11
6.497099
 21
8.102903
 31
0.0
  0
LINE
  8
COMPON
  6
CONTINUOUS
 62
     7
  5
93F
 10
6.313128
 20
8.18321
 30
0.0
 11
6.304289
 21
8.174371
 31
0.0
  0
LINE
  8
COMPON
  6
CONTINUOUS
 62
     7
  5
940
 10
6.304289
 20
8.174371
 30
0.0
 11
6.321967
 21
8.165533
 31
0.0
  0
LINE
  8
COMPON
  6
CONTINUOUS
 62
     7
  5
941
 10
6.321967
 20
8.165533
 30
0.0
 11
6.313128
 21
8.18321
 31
0.0
  0
LINE
  8
COMPON
  6
CONTINUOUS
 62
     7
  5
942
 10
6.313128
 20
8.14571
 30
0.0
 11
6.304289
 21
8.136871
 31
0.0
  0
LINE
  8
COMPON
  6
CONTINUOUS
 62
     7
  5
943
 10
6.304289
 20
8.136871
 30
0.0
 11
6.321967
 21
8.128032
 31
0.0
  0
LINE
  8
COMPON
  6
CONTINUOUS
 62
     7
  5
944
 10
6.321967
 20
8.128032
 30
0.0
 11
6.313128
 21
8.14571
 31
0.0
  0
LINE
  8
COMPON
  6
CONTINUOUS
 62
     7
  5
945
 10
6.175002
 20
7.974998
 30
0.0
 11
6.125002
 21
7.974998
 31
0.0
  0
LINE
  8
COMPON
  6
CONTINUOUS
 62
     7
  5
946
 10
6.125002
 20
7.974998
 30
0.0
 11
6.150002
 21
7.924998
 31
0.0
  0
LINE
  8
COMPON
  6
CONTINUOUS
 62
     7
  5
947
 10
6.150002
 20
7.924998
 30
0.0
 11
6.125002
 21
7.974998
 31
0.0
  0
LINE
  8
COMPON
  6
CONTINUOUS
 62
     7
  5
948
 10
6.125002
 20
7.974998
 30
0.0
 11
6.175002
 21
7.974998
 31
0.0
  0
LINE
  8
COMPON
  6
CONTINUOUS
 62
     7
  5
949
 10
6.175002
 20
7.974998
 30
0.0
 11
6.150002
 21
7.924998
 31
0.0
  0
LINE
  8
COMPON
  6
CONTINUOUS
 62
     7
  5
94A
 10
6.150002
 20
7.924998
 30
0.0
 11
6.125002
 21
7.974998
 31
0.0
  0
LINE
  8
COMPON
  6
CONTINUOUS
 62
     7
  5
94B
 10
6.125002
 20
7.974998
 30
0.0
 11
6.175002
 21
7.974998
 31
0.0
  0
LINE
  8
COMPON
  6
CONTINUOUS
 62
     7
  5
94C
 10
6.46313
 20
7.945709
 30
0.0
 11
6.454291
 21
7.93687
 31
0.0
  0
LINE
  8
COMPON
  6
CONTINUOUS
 62
     7
  5
94D
 10
6.454291
 20
7.93687
 30
0.0
 11
6.471968
 21
7.928032
 31
0.0
  0
LINE
  8
COMPON
  6
CONTINUOUS
 62
     7
  5
94E
 10
6.471968
 20
7.928032
 30
0.0
 11
6.46313
 21
7.945709
 31
0.0
  0
LINE
  8
COMPON
  6
CONTINUOUS
 62
     7
  5
94F
 10
6.497099
 20
7.902903
 30
0.0
 11
6.488261
 21
7.92058
 31
0.0
  0
LINE
  8
COMPON
  6
CONTINUOUS
 62
     7
  5
950
 10
6.488261
 20
7.92058
 30
0.0
 11
6.479422
 21
7.911741
 31
0.0
  0
LINE
  8
COMPON
  6
CONTINUOUS
 62
     7
  5
951
 10
6.479422
 20
7.911741
 30
0.0
 11
6.497099
 21
7.902903
 31
0.0
  0
LINE
  8
COMPON
  6
CONTINUOUS
 62
     7
  5
952
 10
6.313128
 20
7.98321
 30
0.0
 11
6.304289
 21
7.974371
 31
0.0
  0
LINE
  8
COMPON
  6
CONTINUOUS
 62
     7
  5
953
 10
6.304289
 20
7.974371
 30
0.0
 11
6.321967
 21
7.965532
 31
0.0
  0
LINE
  8
COMPON
  6
CONTINUOUS
 62
     7
  5
954
 10
6.321967
 20
7.965532
 30
0.0
 11
6.313128
 21
7.98321
 31
0.0
  0
LINE
  8
COMPON
  6
CONTINUOUS
 62
     7
  5
955
 10
6.313128
 20
7.945709
 30
0.0
 11
6.304289
 21
7.93687
 31
0.0
  0
LINE
  8
COMPON
  6
CONTINUOUS
 62
     7
  5
956
 10
6.304289
 20
7.93687
 30
0.0
 11
6.321967
 21
7.928032
 31
0.0
  0
LINE
  8
COMPON
  6
CONTINUOUS
 62
     7
  5
957
 10
6.321967
 20
7.928032
 30
0.0
 11
6.313128
 21
7.945709
 31
0.0
  0
LINE
  8
WIRING
  6
CONTINUOUS
 62
    11
  5
958
 10
7.706065
 20
5.593934
 30
0.0
 11
7.741421
 21
5.62929
 31
0.0
  0
LINE
  8
WIRING
  6
CONTINUOUS
 62
    11
  5
959
 10
7.741421
 20
5.62929
 30
0.0
 11
7.776776
 21
5.523224
 31
0.0
  0
LINE
  8
WIRING
  6
CONTINUOUS
 62
    11
  5
95A
 10
7.776776
 20
5.523224
 30
0.0
 11
7.67071
 21
5.558579
 31
0.0
  0
LINE
  8
WIRING
  6
CONTINUOUS
 62
    11
  5
95B
 10
7.67071
 20
5.558579
 30
0.0
 11
7.706065
 21
5.593934
 31
0.0
  0
LINE
  8
WIRING
  6
CONTINUOUS
 62
    11
  5
95C
 10
4.970707
 20
9.170711
 30
0.0
 11
5.006063
 21
9.135356
 31
0.0
  0
LINE
  8
WIRING
  6
CONTINUOUS
 62
    11
  5
95D
 10
5.006063
 20
9.135356
 30
0.0
 11
4.899997
 21
9.100001
 31
0.0
  0
LINE
  8
WIRING
  6
CONTINUOUS
 62
    11
  5
95E
 10
4.899997
 20
9.100001
 30
0.0
 11
4.935352
 21
9.206066
 31
0.0
  0
LINE
  8
WIRING
  6
CONTINUOUS
 62
    11
  5
95F
 10
4.935352
 20
9.206066
 30
0.0
 11
4.970707
 21
9.170711
 31
0.0
  0
LINE
  8
WIRING
  6
CONTINUOUS
 62
    11
  5
960
 10
4.206065
 20
9.093933
 30
0.0
 11
4.24142
 21
9.129289
 31
0.0
  0
LINE
  8
WIRING
  6
CONTINUOUS
 62
    11
  5
961
 10
4.24142
 20
9.129289
 30
0.0
 11
4.276775
 21
9.023223
 31
0.0
  0
LINE
  8
WIRING
  6
CONTINUOUS
 62
    11
  5
962
 10
4.276775
 20
9.023223
 30
0.0
 11
4.170709
 21
9.058578
 31
0.0
  0
LINE
  8
WIRING
  6
CONTINUOUS
 62
    11
  5
963
 10
4.170709
 20
9.058578
 30
0.0
 11
4.206065
 21
9.093933
 31
0.0
  0
CIRCLE
  8
WIRING
  6
CONTINUOUS
 62
    11
  5
964
 10
8.85
 20
1.8
 30
0.0
 40
0.025
  0
CIRCLE
  8
WIRING
  6
CONTINUOUS
 62
    11
  5
965
 10
8.85
 20
1.65
 30
0.0
 40
0.025
  0
CIRCLE
  8
WIRING
  6
CONTINUOUS
 62
    11
  5
966
 10
8.85
 20
1.5
 30
0.0
 40
0.025
  0
CIRCLE
  8
WIRING
  6
CONTINUOUS
 62
    11
  5
967
 10
8.85
 20
1.35
 30
0.0
 40
0.025
  0
LINE
  8
WIRING
  6
CONTINUOUS
 62
    11
  5
968
 10
8.156066
 20
8.293934
 30
0.0
 11
8.191421
 21
8.329289
 31
0.0
  0
LINE
  8
WIRING
  6
CONTINUOUS
 62
    11
  5
969
 10
8.191421
 20
8.329289
 30
0.0
 11
8.226776
 21
8.223224
 31
0.0
  0
LINE
  8
WIRING
  6
CONTINUOUS
 62
    11
  5
96A
 10
8.226776
 20
8.223224
 30
0.0
 11
8.12071
 21
8.258578
 31
0.0
  0
LINE
  8
WIRING
  6
CONTINUOUS
 62
    11
  5
96B
 10
8.12071
 20
8.258578
 30
0.0
 11
8.156066
 21
8.293934
 31
0.0
  0
LINE
  8
WIRING
  6
CONTINUOUS
 62
    11
  5
96C
 10
8.156066
 20
7.193934
 30
0.0
 11
8.191421
 21
7.22929
 31
0.0
  0
LINE
  8
WIRING
  6
CONTINUOUS
 62
    11
  5
96D
 10
8.191421
 20
7.22929
 30
0.0
 11
8.226776
 21
7.123224
 31
0.0
  0
LINE
  8
WIRING
  6
CONTINUOUS
 62
    11
  5
96E
 10
8.226776
 20
7.123224
 30
0.0
 11
8.12071
 21
7.158579
 31
0.0
  0
LINE
  8
WIRING
  6
CONTINUOUS
 62
    11
  5
96F
 10
8.12071
 20
7.158579
 30
0.0
 11
8.156066
 21
7.193934
 31
0.0
  0
CIRCLE
  8
WIRING
  6
CONTINUOUS
 62
    11
  5
970
 10
8.299999
 20
6.45
 30
0.0
 40
0.02
  0
CIRCLE
  8
WIRING
  6
CONTINUOUS
 62
    11
  5
971
 10
8.900001
 20
7.4
 30
0.0
 40
0.025
  0
CIRCLE
  8
WIRING
  6
CONTINUOUS
 62
    11
  5
972
 10
8.900001
 20
7.3
 30
0.0
 40
0.025
  0
CIRCLE
  8
WIRING
  6
CONTINUOUS
 62
    11
  5
973
 10
8.900001
 20
7.2
 30
0.0
 40
0.025
  0
CIRCLE
  8
WIRING
  6
CONTINUOUS
 62
    11
  5
974
 10
8.900001
 20
7.1
 30
0.0
 40
0.025
  0
CIRCLE
  8
WIRING
  6
CONTINUOUS
 62
    11
  5
975
 10
8.900001
 20
7.0
 30
0.0
 40
0.025
  0
CIRCLE
  8
WIRING
  6
CONTINUOUS
 62
    11
  5
976
 10
8.900001
 20
6.900001
 30
0.0
 40
0.025
  0
CIRCLE
  8
WIRING
  6
CONTINUOUS
 62
    11
  5
977
 10
1.05
 20
7.05
 30
0.0
 40
0.025
  0
CIRCLE
  8
WIRING
  6
CONTINUOUS
 62
    11
  5
978
 10
1.05
 20
6.95
 30
0.0
 40
0.025
  0
CIRCLE
  8
WIRING
  6
CONTINUOUS
 62
    11
  5
979
 10
1.05
 20
6.85
 30
0.0
 40
0.025
  0
CIRCLE
  8
WIRING
  6
CONTINUOUS
 62
    11
  5
97A
 10
1.05
 20
6.75
 30
0.0
 40
0.025
  0
CIRCLE
  8
WIRING
  6
CONTINUOUS
 62
    11
  5
97B
 10
1.05
 20
6.650001
 30
0.0
 40
0.025
  0
CIRCLE
  8
WIRING
  6
CONTINUOUS
 62
    11
  5
97C
 10
1.05
 20
6.550001
 30
0.0
 40
0.025
  0
CIRCLE
  8
WIRING
  6
CONTINUOUS
 62
    11
  5
97D
 10
1.05
 20
6.450001
 30
0.0
 40
0.025
  0
CIRCLE
  8
WIRING
  6
CONTINUOUS
 62
    11
  5
97E
 10
1.05
 20
6.350001
 30
0.0
 40
0.025
  0
CIRCLE
  8
WIRING
  6
CONTINUOUS
 62
    11
  5
97F
 10
1.05
 20
6.250001
 30
0.0
 40
0.025
  0
CIRCLE
  8
WIRING
  6
CONTINUOUS
 62
    11
  5
980
 10
1.05
 20
6.150001
 30
0.0
 40
0.025
  0
CIRCLE
  8
WIRING
  6
CONTINUOUS
 62
    11
  5
981
 10
1.05
 20
6.050001
 30
0.0
 40
0.025
  0
CIRCLE
  8
WIRING
  6
CONTINUOUS
 62
    11
  5
982
 10
1.05
 20
5.950001
 30
0.0
 40
0.025
  0
LINE
  8
COMPON
  6
CONTINUOUS
 62
     7
  5
983
 10
2.225002
 20
9.825001
 30
0.0
 11
2.175002
 21
9.825001
 31
0.0
  0
LINE
  8
COMPON
  6
CONTINUOUS
 62
     7
  5
984
 10
2.175002
 20
9.825001
 30
0.0
 11
2.200001
 21
9.775001
 31
0.0
  0
LINE
  8
COMPON
  6
CONTINUOUS
 62
     7
  5
985
 10
2.200001
 20
9.775001
 30
0.0
 11
2.175002
 21
9.825001
 31
0.0
  0
LINE
  8
COMPON
  6
CONTINUOUS
 62
     7
  5
986
 10
2.175002
 20
9.825001
 30
0.0
 11
2.225002
 21
9.825001
 31
0.0
  0
LINE
  8
COMPON
  6
CONTINUOUS
 62
     7
  5
987
 10
2.225002
 20
9.825001
 30
0.0
 11
2.200001
 21
9.775001
 31
0.0
  0
LINE
  8
COMPON
  6
CONTINUOUS
 62
     7
  5
988
 10
2.200001
 20
9.775001
 30
0.0
 11
2.175002
 21
9.825001
 31
0.0
  0
LINE
  8
COMPON
  6
CONTINUOUS
 62
     7
  5
989
 10
2.175002
 20
9.825001
 30
0.0
 11
2.225002
 21
9.825001
 31
0.0
  0
LINE
  8
COMPON
  6
CONTINUOUS
 62
     7
  5
98A
 10
2.513129
 20
9.795712
 30
0.0
 11
2.504291
 21
9.786873
 31
0.0
  0
LINE
  8
COMPON
  6
CONTINUOUS
 62
     7
  5
98B
 10
2.504291
 20
9.786873
 30
0.0
 11
2.521968
 21
9.778034
 31
0.0
  0
LINE
  8
COMPON
  6
CONTINUOUS
 62
     7
  5
98C
 10
2.521968
 20
9.778034
 30
0.0
 11
2.513129
 21
9.795712
 31
0.0
  0
LINE
  8
COMPON
  6
CONTINUOUS
 62
     7
  5
98D
 10
2.547099
 20
9.752903
 30
0.0
 11
2.538261
 21
9.770581
 31
0.0
  0
LINE
  8
COMPON
  6
CONTINUOUS
 62
     7
  5
98E
 10
2.538261
 20
9.770581
 30
0.0
 11
2.529422
 21
9.761742
 31
0.0
  0
LINE
  8
COMPON
  6
CONTINUOUS
 62
     7
  5
98F
 10
2.529422
 20
9.761742
 30
0.0
 11
2.547099
 21
9.752903
 31
0.0
  0
LINE
  8
COMPON
  6
CONTINUOUS
 62
     7
  5
990
 10
2.363128
 20
9.83321
 30
0.0
 11
2.354289
 21
9.824371
 31
0.0
  0
LINE
  8
COMPON
  6
CONTINUOUS
 62
     7
  5
991
 10
2.354289
 20
9.824371
 30
0.0
 11
2.371967
 21
9.815532
 31
0.0
  0
LINE
  8
COMPON
  6
CONTINUOUS
 62
     7
  5
992
 10
2.371967
 20
9.815532
 30
0.0
 11
2.363128
 21
9.83321
 31
0.0
  0
LINE
  8
COMPON
  6
CONTINUOUS
 62
     7
  5
993
 10
2.363128
 20
9.795712
 30
0.0
 11
2.354289
 21
9.786873
 31
0.0
  0
LINE
  8
COMPON
  6
CONTINUOUS
 62
     7
  5
994
 10
2.354289
 20
9.786873
 30
0.0
 11
2.371967
 21
9.778034
 31
0.0
  0
LINE
  8
COMPON
  6
CONTINUOUS
 62
     7
  5
995
 10
2.371967
 20
9.778034
 30
0.0
 11
2.363128
 21
9.795712
 31
0.0
  0
LINE
  8
COMPON
  6
CONTINUOUS
 62
     7
  5
996
 10
2.225002
 20
9.625
 30
0.0
 11
2.175002
 21
9.625
 31
0.0
  0
LINE
  8
COMPON
  6
CONTINUOUS
 62
     7
  5
997
 10
2.175002
 20
9.625
 30
0.0
 11
2.200001
 21
9.575
 31
0.0
  0
LINE
  8
COMPON
  6
CONTINUOUS
 62
     7
  5
998
 10
2.200001
 20
9.575
 30
0.0
 11
2.175002
 21
9.625
 31
0.0
  0
LINE
  8
COMPON
  6
CONTINUOUS
 62
     7
  5
999
 10
2.175002
 20
9.625
 30
0.0
 11
2.225002
 21
9.625
 31
0.0
  0
LINE
  8
COMPON
  6
CONTINUOUS
 62
     7
  5
99A
 10
2.225002
 20
9.625
 30
0.0
 11
2.200001
 21
9.575
 31
0.0
  0
LINE
  8
COMPON
  6
CONTINUOUS
 62
     7
  5
99B
 10
2.200001
 20
9.575
 30
0.0
 11
2.175002
 21
9.625
 31
0.0
  0
LINE
  8
COMPON
  6
CONTINUOUS
 62
     7
  5
99C
 10
2.175002
 20
9.625
 30
0.0
 11
2.225002
 21
9.625
 31
0.0
  0
LINE
  8
COMPON
  6
CONTINUOUS
 62
     7
  5
99D
 10
2.513129
 20
9.595711
 30
0.0
 11
2.504291
 21
9.586872
 31
0.0
  0
LINE
  8
COMPON
  6
CONTINUOUS
 62
     7
  5
99E
 10
2.504291
 20
9.586872
 30
0.0
 11
2.521968
 21
9.578033
 31
0.0
  0
LINE
  8
COMPON
  6
CONTINUOUS
 62
     7
  5
99F
 10
2.521968
 20
9.578033
 30
0.0
 11
2.513129
 21
9.595711
 31
0.0
  0
LINE
  8
COMPON
  6
CONTINUOUS
 62
     7
  5
9A0
 10
2.547099
 20
9.552902
 30
0.0
 11
2.538261
 21
9.57058
 31
0.0
  0
LINE
  8
COMPON
  6
CONTINUOUS
 62
     7
  5
9A1
 10
2.538261
 20
9.57058
 30
0.0
 11
2.529422
 21
9.561741
 31
0.0
  0
LINE
  8
COMPON
  6
CONTINUOUS
 62
     7
  5
9A2
 10
2.529422
 20
9.561741
 30
0.0
 11
2.547099
 21
9.552902
 31
0.0
  0
LINE
  8
COMPON
  6
CONTINUOUS
 62
     7
  5
9A3
 10
2.363128
 20
9.633211
 30
0.0
 11
2.354289
 21
9.624372
 31
0.0
  0
LINE
  8
COMPON
  6
CONTINUOUS
 62
     7
  5
9A4
 10
2.354289
 20
9.624372
 30
0.0
 11
2.371967
 21
9.615533
 31
0.0
  0
LINE
  8
COMPON
  6
CONTINUOUS
 62
     7
  5
9A5
 10
2.371967
 20
9.615533
 30
0.0
 11
2.363128
 21
9.633211
 31
0.0
  0
LINE
  8
COMPON
  6
CONTINUOUS
 62
     7
  5
9A6
 10
2.363128
 20
9.595711
 30
0.0
 11
2.354289
 21
9.586872
 31
0.0
  0
LINE
  8
COMPON
  6
CONTINUOUS
 62
     7
  5
9A7
 10
2.354289
 20
9.586872
 30
0.0
 11
2.371967
 21
9.578033
 31
0.0
  0
LINE
  8
COMPON
  6
CONTINUOUS
 62
     7
  5
9A8
 10
2.371967
 20
9.578033
 30
0.0
 11
2.363128
 21
9.595711
 31
0.0
  0
LINE
  8
COMPON
  6
CONTINUOUS
 62
     7
  5
9A9
 10
2.225002
 20
9.424999
 30
0.0
 11
2.175002
 21
9.424999
 31
0.0
  0
LINE
  8
COMPON
  6
CONTINUOUS
 62
     7
  5
9AA
 10
2.175002
 20
9.424999
 30
0.0
 11
2.200001
 21
9.374999
 31
0.0
  0
LINE
  8
COMPON
  6
CONTINUOUS
 62
     7
  5
9AB
 10
2.200001
 20
9.374999
 30
0.0
 11
2.175002
 21
9.424999
 31
0.0
  0
LINE
  8
COMPON
  6
CONTINUOUS
 62
     7
  5
9AC
 10
2.175002
 20
9.424999
 30
0.0
 11
2.225002
 21
9.424999
 31
0.0
  0
LINE
  8
COMPON
  6
CONTINUOUS
 62
     7
  5
9AD
 10
2.225002
 20
9.424999
 30
0.0
 11
2.200001
 21
9.374999
 31
0.0
  0
LINE
  8
COMPON
  6
CONTINUOUS
 62
     7
  5
9AE
 10
2.200001
 20
9.374999
 30
0.0
 11
2.175002
 21
9.424999
 31
0.0
  0
LINE
  8
COMPON
  6
CONTINUOUS
 62
     7
  5
9AF
 10
2.175002
 20
9.424999
 30
0.0
 11
2.225002
 21
9.424999
 31
0.0
  0
LINE
  8
COMPON
  6
CONTINUOUS
 62
     7
  5
9B0
 10
2.513129
 20
9.39571
 30
0.0
 11
2.504291
 21
9.386871
 31
0.0
  0
LINE
  8
COMPON
  6
CONTINUOUS
 62
     7
  5
9B1
 10
2.504291
 20
9.386871
 30
0.0
 11
2.521968
 21
9.378032
 31
0.0
  0
LINE
  8
COMPON
  6
CONTINUOUS
 62
     7
  5
9B2
 10
2.521968
 20
9.378032
 30
0.0
 11
2.513129
 21
9.39571
 31
0.0
  0
LINE
  8
COMPON
  6
CONTINUOUS
 62
     7
  5
9B3
 10
2.547099
 20
9.352903
 30
0.0
 11
2.538261
 21
9.370581
 31
0.0
  0
LINE
  8
COMPON
  6
CONTINUOUS
 62
     7
  5
9B4
 10
2.538261
 20
9.370581
 30
0.0
 11
2.529422
 21
9.361742
 31
0.0
  0
LINE
  8
COMPON
  6
CONTINUOUS
 62
     7
  5
9B5
 10
2.529422
 20
9.361742
 30
0.0
 11
2.547099
 21
9.352903
 31
0.0
  0
LINE
  8
COMPON
  6
CONTINUOUS
 62
     7
  5
9B6
 10
2.363128
 20
9.43321
 30
0.0
 11
2.354289
 21
9.424371
 31
0.0
  0
LINE
  8
COMPON
  6
CONTINUOUS
 62
     7
  5
9B7
 10
2.354289
 20
9.424371
 30
0.0
 11
2.371967
 21
9.415533
 31
0.0
  0
LINE
  8
COMPON
  6
CONTINUOUS
 62
     7
  5
9B8
 10
2.371967
 20
9.415533
 30
0.0
 11
2.363128
 21
9.43321
 31
0.0
  0
LINE
  8
COMPON
  6
CONTINUOUS
 62
     7
  5
9B9
 10
2.363128
 20
9.39571
 30
0.0
 11
2.354289
 21
9.386871
 31
0.0
  0
LINE
  8
COMPON
  6
CONTINUOUS
 62
     7
  5
9BA
 10
2.354289
 20
9.386871
 30
0.0
 11
2.371967
 21
9.378032
 31
0.0
  0
LINE
  8
COMPON
  6
CONTINUOUS
 62
     7
  5
9BB
 10
2.371967
 20
9.378032
 30
0.0
 11
2.363128
 21
9.39571
 31
0.0
  0
LINE
  8
COMPON
  6
CONTINUOUS
 62
     7
  5
9BC
 10
2.225002
 20
9.224998
 30
0.0
 11
2.175002
 21
9.224998
 31
0.0
  0
LINE
  8
COMPON
  6
CONTINUOUS
 62
     7
  5
9BD
 10
2.175002
 20
9.224998
 30
0.0
 11
2.200001
 21
9.174998
 31
0.0
  0
LINE
  8
COMPON
  6
CONTINUOUS
 62
     7
  5
9BE
 10
2.200001
 20
9.174998
 30
0.0
 11
2.175002
 21
9.224998
 31
0.0
  0
LINE
  8
COMPON
  6
CONTINUOUS
 62
     7
  5
9BF
 10
2.175002
 20
9.224998
 30
0.0
 11
2.225002
 21
9.224998
 31
0.0
  0
LINE
  8
COMPON
  6
CONTINUOUS
 62
     7
  5
9C0
 10
2.225002
 20
9.224998
 30
0.0
 11
2.200001
 21
9.174998
 31
0.0
  0
LINE
  8
COMPON
  6
CONTINUOUS
 62
     7
  5
9C1
 10
2.200001
 20
9.174998
 30
0.0
 11
2.175002
 21
9.224998
 31
0.0
  0
LINE
  8
COMPON
  6
CONTINUOUS
 62
     7
  5
9C2
 10
2.175002
 20
9.224998
 30
0.0
 11
2.225002
 21
9.224998
 31
0.0
  0
LINE
  8
COMPON
  6
CONTINUOUS
 62
     7
  5
9C3
 10
2.513129
 20
9.195709
 30
0.0
 11
2.504291
 21
9.18687
 31
0.0
  0
LINE
  8
COMPON
  6
CONTINUOUS
 62
     7
  5
9C4
 10
2.504291
 20
9.18687
 30
0.0
 11
2.521968
 21
9.178032
 31
0.0
  0
LINE
  8
COMPON
  6
CONTINUOUS
 62
     7
  5
9C5
 10
2.521968
 20
9.178032
 30
0.0
 11
2.513129
 21
9.195709
 31
0.0
  0
LINE
  8
COMPON
  6
CONTINUOUS
 62
     7
  5
9C6
 10
2.547099
 20
9.152903
 30
0.0
 11
2.538261
 21
9.17058
 31
0.0
  0
LINE
  8
COMPON
  6
CONTINUOUS
 62
     7
  5
9C7
 10
2.538261
 20
9.17058
 30
0.0
 11
2.529422
 21
9.161741
 31
0.0
  0
LINE
  8
COMPON
  6
CONTINUOUS
 62
     7
  5
9C8
 10
2.529422
 20
9.161741
 30
0.0
 11
2.547099
 21
9.152903
 31
0.0
  0
LINE
  8
COMPON
  6
CONTINUOUS
 62
     7
  5
9C9
 10
2.363128
 20
9.23321
 30
0.0
 11
2.354289
 21
9.224371
 31
0.0
  0
LINE
  8
COMPON
  6
CONTINUOUS
 62
     7
  5
9CA
 10
2.354289
 20
9.224371
 30
0.0
 11
2.371967
 21
9.215532
 31
0.0
  0
LINE
  8
COMPON
  6
CONTINUOUS
 62
     7
  5
9CB
 10
2.371967
 20
9.215532
 30
0.0
 11
2.363128
 21
9.23321
 31
0.0
  0
LINE
  8
COMPON
  6
CONTINUOUS
 62
     7
  5
9CC
 10
2.363128
 20
9.195709
 30
0.0
 11
2.354289
 21
9.18687
 31
0.0
  0
LINE
  8
COMPON
  6
CONTINUOUS
 62
     7
  5
9CD
 10
2.354289
 20
9.18687
 30
0.0
 11
2.371967
 21
9.178032
 31
0.0
  0
LINE
  8
COMPON
  6
CONTINUOUS
 62
     7
  5
9CE
 10
2.371967
 20
9.178032
 30
0.0
 11
2.363128
 21
9.195709
 31
0.0
  0
CIRCLE
  8
WIRING
  6
CONTINUOUS
 62
    11
  5
9CF
 10
1.05
 20
9.950001
 30
0.0
 40
0.025
  0
CIRCLE
  8
WIRING
  6
CONTINUOUS
 62
    11
  5
9D0
 10
1.05
 20
9.85
 30
0.0
 40
0.025
  0
CIRCLE
  8
WIRING
  6
CONTINUOUS
 62
    11
  5
9D1
 10
1.05
 20
9.75
 30
0.0
 40
0.025
  0
CIRCLE
  8
WIRING
  6
CONTINUOUS
 62
    11
  5
9D2
 10
1.05
 20
9.65
 30
0.0
 40
0.025
  0
CIRCLE
  8
WIRING
  6
CONTINUOUS
 62
    11
  5
9D3
 10
1.05
 20
9.549999
 30
0.0
 40
0.025
  0
CIRCLE
  8
WIRING
  6
CONTINUOUS
 62
    11
  5
9D4
 10
1.05
 20
9.449999
 30
0.0
 40
0.025
  0
CIRCLE
  8
WIRING
  6
CONTINUOUS
 62
    11
  5
9D5
 10
1.05
 20
9.349998
 30
0.0
 40
0.025
  0
CIRCLE
  8
WIRING
  6
CONTINUOUS
 62
    11
  5
9D6
 10
1.05
 20
9.249998
 30
0.0
 40
0.025
  0
CIRCLE
  8
WIRING
  6
CONTINUOUS
 62
    11
  5
9D7
 10
1.05
 20
9.149998
 30
0.0
 40
0.025
  0
CIRCLE
  8
WIRING
  6
CONTINUOUS
 62
     7
  5
9D8
 10
8.799999
 20
-0.150001
 30
0.0
 40
0.0125
  0
CIRCLE
  8
WIRING
  6
CONTINUOUS
 62
     7
  5
9D9
 10
8.899999
 20
-0.150001
 30
0.0
 40
0.0125
  0
CIRCLE
  8
WIRING
  6
CONTINUOUS
 62
     7
  5
9DA
 10
8.799999
 20
0.15
 30
0.0
 40
0.0125
  0
CIRCLE
  8
WIRING
  6
CONTINUOUS
 62
     7
  5
9DB
 10
8.899999
 20
0.15
 30
0.0
 40
0.0125
  0
CIRCLE
  8
WIRING
  6
CONTINUOUS
 62
     7
  5
9DC
 10
8.799999
 20
0.05
 30
0.0
 40
0.0125
  0
CIRCLE
  8
WIRING
  6
CONTINUOUS
 62
     7
  5
9DD
 10
8.899999
 20
0.05
 30
0.0
 40
0.0125
  0
CIRCLE
  8
WIRING
  6
CONTINUOUS
 62
     7
  5
9DE
 10
8.799999
 20
-0.05
 30
0.0
 40
0.0125
  0
CIRCLE
  8
WIRING
  6
CONTINUOUS
 62
     7
  5
9DF
 10
8.899999
 20
-0.05
 30
0.0
 40
0.0125
  0
CIRCLE
  8
WIRING
  6
CONTINUOUS
 62
     7
  5
9E0
 10
8.799999
 20
0.649999
 30
0.0
 40
0.0125
  0
CIRCLE
  8
WIRING
  6
CONTINUOUS
 62
     7
  5
9E1
 10
8.899999
 20
0.649999
 30
0.0
 40
0.0125
  0
CIRCLE
  8
WIRING
  6
CONTINUOUS
 62
     7
  5
9E2
 10
8.799999
 20
0.55
 30
0.0
 40
0.0125
  0
CIRCLE
  8
WIRING
  6
CONTINUOUS
 62
     7
  5
9E3
 10
8.899999
 20
0.55
 30
0.0
 40
0.0125
  0
CIRCLE
  8
WIRING
  6
CONTINUOUS
 62
     7
  5
9E4
 10
8.799999
 20
0.45
 30
0.0
 40
0.0125
  0
CIRCLE
  8
WIRING
  6
CONTINUOUS
 62
     7
  5
9E5
 10
8.899999
 20
0.45
 30
0.0
 40
0.0125
  0
CIRCLE
  8
WIRING
  6
CONTINUOUS
 62
     7
  5
9E6
 10
8.799999
 20
0.85
 30
0.0
 40
0.0125
  0
CIRCLE
  8
WIRING
  6
CONTINUOUS
 62
     7
  5
9E7
 10
8.899999
 20
0.85
 30
0.0
 40
0.0125
  0
CIRCLE
  8
WIRING
  6
CONTINUOUS
 62
     7
  5
9E8
 10
8.799999
 20
0.75
 30
0.0
 40
0.0125
  0
CIRCLE
  8
WIRING
  6
CONTINUOUS
 62
     7
  5
9E9
 10
8.899999
 20
0.75
 30
0.0
 40
0.0125
  0
CIRCLE
  8
WIRING
  6
CONTINUOUS
 62
     7
  5
9EA
 10
8.799999
 20
-1.049999
 30
0.0
 40
0.0125
  0
CIRCLE
  8
WIRING
  6
CONTINUOUS
 62
     7
  5
9EB
 10
8.899999
 20
-1.049999
 30
0.0
 40
0.0125
  0
CIRCLE
  8
WIRING
  6
CONTINUOUS
 62
     7
  5
9EC
 10
8.799999
 20
-0.25
 30
0.0
 40
0.0125
  0
CIRCLE
  8
WIRING
  6
CONTINUOUS
 62
     7
  5
9ED
 10
8.899999
 20
-0.25
 30
0.0
 40
0.0125
  0
CIRCLE
  8
WIRING
  6
CONTINUOUS
 62
     7
  5
9EE
 10
8.799999
 20
-0.349999
 30
0.0
 40
0.0125
  0
CIRCLE
  8
WIRING
  6
CONTINUOUS
 62
     7
  5
9EF
 10
8.899999
 20
-0.349999
 30
0.0
 40
0.0125
  0
CIRCLE
  8
WIRING
  6
CONTINUOUS
 62
     7
  5
9F0
 10
8.799999
 20
-0.849999
 30
0.0
 40
0.0125
  0
CIRCLE
  8
WIRING
  6
CONTINUOUS
 62
     7
  5
9F1
 10
8.899999
 20
-0.849999
 30
0.0
 40
0.0125
  0
CIRCLE
  8
WIRING
  6
CONTINUOUS
 62
     7
  5
9F2
 10
8.799999
 20
-0.95
 30
0.0
 40
0.0125
  0
CIRCLE
  8
WIRING
  6
CONTINUOUS
 62
     7
  5
9F3
 10
8.899999
 20
-0.95
 30
0.0
 40
0.0125
  0
CIRCLE
  8
WIRING
  6
CONTINUOUS
 62
     7
  5
9F4
 10
8.799999
 20
-0.25
 30
0.0
 40
0.0125
  0
CIRCLE
  8
WIRING
  6
CONTINUOUS
 62
     7
  5
9F5
 10
8.899999
 20
-0.25
 30
0.0
 40
0.0125
  0
CIRCLE
  8
WIRING
  6
CONTINUOUS
 62
     7
  5
9F6
 10
8.799999
 20
-0.35
 30
0.0
 40
0.0125
  0
CIRCLE
  8
WIRING
  6
CONTINUOUS
 62
     7
  5
9F7
 10
8.899999
 20
-0.35
 30
0.0
 40
0.0125
  0
CIRCLE
  8
WIRING
  6
CONTINUOUS
 62
     7
  5
9F8
 10
8.799999
 20
-0.45
 30
0.0
 40
0.0125
  0
CIRCLE
  8
WIRING
  6
CONTINUOUS
 62
     7
  5
9F9
 10
8.899999
 20
-0.45
 30
0.0
 40
0.0125
  0
CIRCLE
  8
WIRING
  6
CONTINUOUS
 62
     7
  5
9FA
 10
8.799999
 20
-0.549999
 30
0.0
 40
0.0125
  0
CIRCLE
  8
WIRING
  6
CONTINUOUS
 62
     7
  5
9FB
 10
8.899999
 20
-0.549999
 30
0.0
 40
0.0125
  0
CIRCLE
  8
WIRING
  6
CONTINUOUS
 62
     7
  5
9FC
 10
8.799999
 20
-0.65
 30
0.0
 40
0.0125
  0
CIRCLE
  8
WIRING
  6
CONTINUOUS
 62
     7
  5
9FD
 10
8.899999
 20
-0.65
 30
0.0
 40
0.0125
  0
CIRCLE
  8
WIRING
  6
CONTINUOUS
 62
     7
  5
9FE
 10
8.799999
 20
-0.75
 30
0.0
 40
0.0125
  0
CIRCLE
  8
WIRING
  6
CONTINUOUS
 62
     7
  5
9FF
 10
8.899999
 20
-0.75
 30
0.0
 40
0.0125
  0
CIRCLE
  8
WIRING
  6
CONTINUOUS
 62
     7
  5
A00
 10
8.799999
 20
-0.849999
 30
0.0
 40
0.0125
  0
CIRCLE
  8
WIRING
  6
CONTINUOUS
 62
     7
  5
A01
 10
8.899999
 20
-0.849999
 30
0.0
 40
0.0125
  0
ENDSEC
  0
EOF
