  0
SECTION
  2
HEADER
  9
$ACADVER
  1
AC1009
  9
$INSBASE
 10
0.0
 20
0.0
 30
0.0
  9
$EXTMIN
 10
0.8
 20
0.1
 30
0.0
  9
$EXTMAX
 10
14.400001
 20
10.299999
 30
0.0
  9
$LIMMIN
 10
0.0
 20
0.0
  9
$LIMMAX
 10
12.0
 20
9.0
  9
$ORTHOMODE
 70
     0
  9
$REGENMODE
 70
     1
  9
$FILLMODE
 70
     1
  9
$QTEXTMODE
 70
     0
  9
$MIRRTEXT
 70
     1
  9
$DRAGMODE
 70
     2
  9
$LTSCALE
 40
1.0
  9
$OSMODE
 70
     0
  9
$ATTMODE
 70
     1
  9
$TEXTSIZE
 40
0.2
  9
$TRACEWID
 40
0.05
  9
$TEXTSTYLE
  7
STANDARD
  9
$CLAYER
  8
0
  9
$CELTYPE
  6
CONTINUOUS
  9
$CECOLOR
 62
 32767
  9
$DIMSCALE
 40
1.0
  9
$DIMASZ
 40
0.18
  9
$DIMEXO
 40
0.0625
  9
$DIMDLI
 40
0.38
  9
$DIMRND
 40
0.0
  9
$DIMDLE
 40
0.0
  9
$DIMEXE
 40
0.18
  9
$DIMTP
 40
0.0
  9
$DIMTM
 40
0.0
  9
$DIMTXT
 40
0.18
  9
$DIMCEN
 40
0.09
  9
$DIMTSZ
 40
0.0
  9
$DIMTOL
 70
     0
  9
$DIMLIM
 70
     0
  9
$DIMTIH
 70
     1
  9
$DIMTOH
 70
     1
  9
$DIMSE1
 70
     0
  9
$DIMSE2
 70
     0
  9
$DIMTAD
 70
     0
  9
$DIMZIN
 70
     0
  9
$DIMBLK
  1

  9
$DIMASO
 70
     1
  9
$DIMSHO
 70
     1
  9
$DIMPOST
  1

  9
$DIMAPOST
  1

  9
$DIMALT
 70
     0
  9
$DIMALTD
 70
     2
  9
$DIMALTF
 40
25.4
  9
$DIMLFAC
 40
1.0
  9
$DIMTOFL
 70
     0
  9
$DIMTVP
 40
0.0
  9
$DIMTIX
 70
     0
  9
$DIMSOXD
 70
     0
  9
$DIMSAH
 70
     0
  9
$DIMBLK1
  1

  9
$DIMBLK2
  1

  9
$DIMSTYLE
  2
*UNNAMED
  9
$DIMCLRD
 70
     0
  9
$DIMCLRE
 70
     0
  9
$DIMCLRT
 70
     0
  9
$DIMTFAC
 40
1.0
  9
$DIMGAP
 40
0.09
  9
$LUNITS
 70
     2
  9
$LUPREC
 70
     4
  9
$AXISMODE
 70
     0
  9
$AXISUNIT
 10
0.0
 20
0.0
  9
$SKETCHINC
 40
0.1
  9
$FILLETRAD
 40
0.0
  9
$AUNITS
 70
     0
  9
$AUPREC
 70
     0
  9
$MENU
  1
acad
  9
$ELEVATION
 40
0.0
  9
$PELEVATION
 40
0.0
  9
$THICKNESS
 40
0.0
  9
$LIMCHECK
 70
     0
  9
$BLIPMODE
 70
     1
  9
$CHAMFERA
 40
0.0
  9
$CHAMFERB
 40
0.0
  9
$SKPOLY
 70
     0
  9
$TDCREATE
 40
0.000000000
  9
$TDUPDATE
 40
0.000000000
  9
$TDINDWG
 40
0.0000000000
  9
$TDUSRTIMER
 40
0.0000000000
  9
$USRTIMER
 70
     1
  9
$ANGBASE
 50
0.0
  9
$ANGDIR
 70
     0
  9
$PDMODE
 70
     2
  9
$PDSIZE
 40
0.0
  9
$PLINEWID
 40
0.0
  9
$COORDS
 70
     0
  9
$SPLFRAME
 70
     0
  9
$SPLINETYPE
 70
     6
  9
$SPLINESEGS
 70
     8
  9
$ATTDIA
 70
     0
  9
$ATTREQ
 70
     1
  9
$HANDLING
 70
     0
  9
$HANDSEED
  5
             269
  9
$SURFTAB1
 70
     6
  9
$SURFTAB2
 70
     6
  9
$SURFTYPE
 70
     6
  9
$SURFU
 70
     6
  9
$SURFV
 70
     6
  9
$UCSNAME
  2

  9
$UCSORG
 10
0.0
 20
0.0
 30
0.0
  9
$UCSXDIR
 10
1.0
 20
0.0
 30
0.0
  9
$UCSYDIR
 10
0.0
 20
1.0
 30
0.0
  9
$PUCSNAME
  2

  9
$PUCSORG
 10
0.0
 20
0.0
 30
0.0
  9
$PUCSXDIR
 10
1.0
 20
0.0
 30
0.0
  9
$PUCSYDIR
 10
0.0
 20
1.0
 30
0.0
  9
$USERI1
 70
     0
  9
$USERI2
 70
     0
  9
$USERI3
 70
     0
  9
$USERI4
 70
     0
  9
$USERI5
 70
     0
  9
$USERR1
 40
0.0
  9
$USERR2
 40
0.0
  9
$USERR3
 40
0.0
  9
$USERR4
 40
0.0
  9
$USERR5
 40
0.0
  9
$WORLDVIEW
 70
     1
  9
$SHADEDGE
 70
     3
  9
$SHADEDIF
 70
    70
  9
$TILEMODE
 70
     1
  9
$MAXACTVP
 70
    16
  9
$PINSBASE
 10
0.0
 20
0.0
 30
0.0
  9
$PLIMCHECK
 70
     0
  9
$PEXTMIN
 10
-1.000000E+20
 20
-1.000000E+20
 30
-1.000000E+20
  9
$PEXTMAX
 10
-1.000000E+20
 20
-1.000000E+20
 30
-1.000000E+20
  9
$PLIMMIN
 10
0.0
 20
0.0
  9
$PLIMMAX
 10
12.0
 20
9.0
  9
$UNITMODE
 70
     0
  9
$VISRETAIN
 70
     0
  0
ENDSEC
  0
SECTION
  2
TABLES
  0
TABLE
  2
VPORT
 70
     1
  0
VPORT
  2
*ACTIVE
 70
     0
 10
0.0
 20
0.0
 11
1.0
 21
1.0
 12
36.0
 22
36.0
 13
0.0
 23
0.0
 14
1.0
 24
1.0
 15
0.0
 25
0.0
 16
0.0
 26
0.0
 36
1.0
 17
0.0
 27
0.0
 37
0.0
 40
76.0
 41
1.604229
 42
50.0
 43
0.0
 44
0.0
 50
0.0
 51
0.0
 71
     0
 72
   100
 73
     1
 74
     1
 75
     0
 76
     0
 77
     0
 78
     0
  0
ENDTAB
  0
TABLE
  2
LTYPE
 70
     2
  0
LTYPE
  2
CONTINUOUS
 70
     0
  3
Visual CADD Translation
 72
    65
 73
     0
 40
0.0
  0
LTYPE
  2
TYPE___1
 70
     0
  3
Visual CADD Translation
 72
    65
 73
     2
 40
1.0
 49
0.87
 49
-0.13
  0
ENDTAB
  0
TABLE
  2
LAYER
 70
     1
  0
LAYER
  2
Layer-0
 70
     0
 62
    12
  6
CONTINUOUS
  0
ENDTAB
  0
TABLE
  2
STYLE
 70
     1
  0
STYLE
  2
VC-TEXTSTYLE0
 70
     0
 40
0.2
 41
1.0
 50
0.0
 71
     0
 42
0.2
  3
TXT
  4

  0
ENDTAB
  0
TABLE
  2
APPID
 70
     0
  0
ENDTAB
  0
TABLE
  2
VIEW
 70
     0
  0
ENDTAB
  0
ENDSEC
  0
SECTION
  2
BLOCKS
  0
ENDSEC
  0
SECTION
  2
ENTITIES
  0
LINE
  8
Layer-0
  6
CONTINUOUS
 62
    15
  5
1
 10
5.0
 20
4.4
 30
0.0
 11
3.4
 21
4.4
 31
0.0
  0
TEXT
  8
Layer-0
  6
CONTINUOUS
 62
    11
  5
2
 10
3.5
 20
4.7
 30
0.0
 40
0.1
  1
1
  7
VC-TEXTSTYLE0
  0
TEXT
  8
Layer-0
  6
CONTINUOUS
 62
    11
  5
3
 10
4.799999
 20
4.7
 30
0.0
 40
0.1
  1
8
  7
VC-TEXTSTYLE0
  0
TEXT
  8
Layer-0
  6
CONTINUOUS
 62
    11
  5
4
 10
3.5
 20
5.1
 30
0.0
 40
0.1
  1
2
  7
VC-TEXTSTYLE0
  0
TEXT
  8
Layer-0
  6
CONTINUOUS
 62
    11
  5
5
 10
3.5
 20
5.5
 30
0.0
 40
0.1
  1
3
  7
VC-TEXTSTYLE0
  0
TEXT
  8
Layer-0
  6
CONTINUOUS
 62
    11
  5
6
 10
3.5
 20
5.9
 30
0.0
 40
0.1
  1
4
  7
VC-TEXTSTYLE0
  0
TEXT
  8
Layer-0
  6
CONTINUOUS
 62
    11
  5
7
 10
4.799999
 20
5.9
 30
0.0
 40
0.1
  1
5
  7
VC-TEXTSTYLE0
  0
TEXT
  8
Layer-0
  6
CONTINUOUS
 62
    11
  5
8
 10
4.799999
 20
5.5
 30
0.0
 40
0.1
  1
6
  7
VC-TEXTSTYLE0
  0
TEXT
  8
Layer-0
  6
CONTINUOUS
 62
    11
  5
9
 10
4.799999
 20
5.1
 30
0.0
 40
0.1
  1
7
  7
VC-TEXTSTYLE0
  0
LINE
  8
Layer-0
  6
CONTINUOUS
 62
    15
  5
A
 10
3.4
 20
5.9
 30
0.0
 11
3.2
 21
5.9
 31
0.0
  0
LINE
  8
Layer-0
  6
CONTINUOUS
 62
    15
  5
B
 10
3.4
 20
5.5
 30
0.0
 11
3.2
 21
5.5
 31
0.0
  0
LINE
  8
Layer-0
  6
CONTINUOUS
 62
    15
  5
C
 10
3.4
 20
5.1
 30
0.0
 11
3.2
 21
5.1
 31
0.0
  0
LINE
  8
Layer-0
  6
CONTINUOUS
 62
    15
  5
D
 10
3.4
 20
4.7
 30
0.0
 11
3.2
 21
4.7
 31
0.0
  0
LINE
  8
Layer-0
  6
CONTINUOUS
 62
    15
  5
E
 10
3.4
 20
4.4
 30
0.0
 11
3.4
 21
6.2
 31
0.0
  0
LINE
  8
Layer-0
  6
CONTINUOUS
 62
    15
  5
F
 10
5.0
 20
6.2
 30
0.0
 11
5.0
 21
4.4
 31
0.0
  0
LINE
  8
Layer-0
  6
CONTINUOUS
 62
    15
  5
10
 10
3.4
 20
6.2
 30
0.0
 11
5.0
 21
6.2
 31
0.0
  0
LINE
  8
Layer-0
  6
CONTINUOUS
 62
    15
  5
11
 10
5.0
 20
5.9
 30
0.0
 11
5.2
 21
5.9
 31
0.0
  0
LINE
  8
Layer-0
  6
CONTINUOUS
 62
    15
  5
12
 10
5.0
 20
5.5
 30
0.0
 11
5.2
 21
5.5
 31
0.0
  0
LINE
  8
Layer-0
  6
CONTINUOUS
 62
    15
  5
13
 10
5.0
 20
5.1
 30
0.0
 11
5.2
 21
5.1
 31
0.0
  0
LINE
  8
Layer-0
  6
CONTINUOUS
 62
    15
  5
14
 10
5.0
 20
4.7
 30
0.0
 11
5.2
 21
4.7
 31
0.0
  0
LINE
  8
Layer-0
  6
CONTINUOUS
 62
    15
  5
15
 10
3.6
 20
4.7
 30
0.0
 11
3.7
 21
4.7
 31
0.0
  0
LINE
  8
Layer-0
  6
CONTINUOUS
 62
    15
  5
16
 10
3.7
 20
4.7
 30
0.0
 11
3.7
 21
4.8
 31
0.0
  0
LINE
  8
Layer-0
  6
CONTINUOUS
 62
    15
  5
17
 10
3.7
 20
4.8
 30
0.0
 11
3.8
 21
4.8
 31
0.0
  0
LINE
  8
Layer-0
  6
CONTINUOUS
 62
    15
  5
18
 10
3.7
 20
5.1
 30
0.0
 11
3.7
 21
5.0
 31
0.0
  0
LINE
  8
Layer-0
  6
CONTINUOUS
 62
    15
  5
19
 10
3.7
 20
5.0
 30
0.0
 11
3.8
 21
5.0
 31
0.0
  0
LINE
  8
Layer-0
  6
CONTINUOUS
 62
    15
  5
1A
 10
3.7
 20
5.1
 30
0.0
 11
3.6
 21
5.1
 31
0.0
  0
LINE
  8
Layer-0
  6
CONTINUOUS
 62
    15
  5
1B
 10
3.8
 20
5.1
 30
0.0
 11
3.8
 21
4.7
 31
0.0
  0
LINE
  8
Layer-0
  6
CONTINUOUS
 62
    15
  5
1C
 10
3.8
 20
4.7
 30
0.0
 11
4.0
 21
4.9
 31
0.0
  0
LINE
  8
Layer-0
  6
CONTINUOUS
 62
    15
  5
1D
 10
4.0
 20
4.9
 30
0.0
 11
3.8
 21
5.1
 31
0.0
  0
LINE
  8
Layer-0
  6
CONTINUOUS
 62
    15
  5
1E
 10
4.8
 20
4.7
 30
0.0
 11
4.7
 21
4.7
 31
0.0
  0
LINE
  8
Layer-0
  6
CONTINUOUS
 62
    15
  5
1F
 10
4.7
 20
4.7
 30
0.0
 11
4.7
 21
4.5
 31
0.0
  0
LINE
  8
Layer-0
  6
CONTINUOUS
 62
    15
  5
20
 10
4.7
 20
4.5
 30
0.0
 11
4.3
 21
4.5
 31
0.0
  0
LINE
  8
Layer-0
  6
CONTINUOUS
 62
    15
  5
21
 10
4.3
 20
4.5
 30
0.0
 11
4.3
 21
4.8
 31
0.0
  0
LINE
  8
Layer-0
  6
CONTINUOUS
 62
    15
  5
22
 10
4.3
 20
4.8
 30
0.0
 11
4.7
 21
4.8
 31
0.0
  0
LINE
  8
Layer-0
  6
CONTINUOUS
 62
    15
  5
23
 10
4.7
 20
4.8
 30
0.0
 11
4.7
 21
4.7
 31
0.0
  0
LINE
  8
Layer-0
  6
CONTINUOUS
 62
    15
  5
24
 10
4.3
 20
4.6
 30
0.0
 11
4.2
 21
4.6
 31
0.0
  0
TEXT
  8
Layer-0
  6
CONTINUOUS
 62
    11
  5
25
 10
4.4
 20
4.6
 30
0.0
 40
0.1
  1
VR
  7
VC-TEXTSTYLE0
  0
LINE
  8
Layer-0
  6
CONTINUOUS
 62
    15
  5
26
 10
4.8
 20
5.1
 30
0.0
 11
4.7
 21
5.1
 31
0.0
  0
LINE
  8
Layer-0
  6
CONTINUOUS
 62
    15
  5
27
 10
3.7
 20
5.9
 30
0.0
 11
3.9
 21
5.9
 31
0.0
  0
LINE
  8
Layer-0
  6
CONTINUOUS
 62
    15
  5
28
 10
4.8
 20
5.9
 30
0.0
 11
4.6
 21
5.9
 31
0.0
  0
LINE
  8
Layer-0
  6
CONTINUOUS
 62
    15
  5
29
 10
3.9
 20
5.9
 30
0.0
 11
4.0
 21
5.9
 31
0.0
  0
CIRCLE
  8
Layer-0
  6
CONTINUOUS
 62
    15
  5
2A
 10
4.2
 20
5.9
 30
0.0
 40
0.2
  0
LINE
  8
Layer-0
  6
CONTINUOUS
 62
    15
  5
2B
 10
4.6
 20
5.9
 30
0.0
 11
4.4
 21
5.9
 31
0.0
  0
LINE
  8
Layer-0
  6
CONTINUOUS
 62
    15
  5
2C
 10
4.3
 20
6.0
 30
0.0
 11
4.1
 21
5.8
 31
0.0
  0
LINE
  8
Layer-0
  6
CONTINUOUS
 62
    15
  5
2D
 10
4.1
 20
6.0
 30
0.0
 11
4.3
 21
5.8
 31
0.0
  0
LINE
  8
Layer-0
  6
CONTINUOUS
 62
    15
  5
2E
 10
4.0
 20
4.9
 30
0.0
 11
4.2
 21
4.9
 31
0.0
  0
LINE
  8
Layer-0
  6
CONTINUOUS
 62
    15
  5
2F
 10
4.2
 20
4.9
 30
0.0
 11
4.2
 21
5.7
 31
0.0
  0
LINE
  8
Layer-0
  6
CONTINUOUS
 62
    15
  5
30
 10
3.7
 20
5.5
 30
0.0
 11
3.9
 21
5.5
 31
0.0
  0
LINE
  8
Layer-0
  6
CONTINUOUS
 62
    15
  5
31
 10
3.9
 20
5.5
 30
0.0
 11
3.9
 21
5.4
 31
0.0
  0
LINE
  8
Layer-0
  6
CONTINUOUS
 62
    15
  5
32
 10
3.9
 20
5.4
 30
0.0
 11
3.8
 21
5.4
 31
0.0
  0
LINE
  8
Layer-0
  6
CONTINUOUS
 62
    15
  5
33
 10
3.8
 20
5.4
 30
0.0
 11
3.9
 21
5.3
 31
0.0
  0
LINE
  8
Layer-0
  6
CONTINUOUS
 62
    15
  5
34
 10
3.9
 20
5.3
 30
0.0
 11
4.0
 21
5.4
 31
0.0
  0
LINE
  8
Layer-0
  6
CONTINUOUS
 62
    15
  5
35
 10
4.0
 20
5.4
 30
0.0
 11
3.9
 21
5.4
 31
0.0
  0
LINE
  8
Layer-0
  6
CONTINUOUS
 62
    15
  5
36
 10
3.9
 20
5.4
 30
0.0
 11
4.0
 21
5.4
 31
0.0
  0
LINE
  8
Layer-0
  6
CONTINUOUS
 62
    15
  5
37
 10
4.0
 20
5.4
 30
0.0
 11
3.9
 21
5.4
 31
0.0
  0
LINE
  8
Layer-0
  6
CONTINUOUS
 62
    15
  5
38
 10
4.3
 20
5.6
 30
0.0
 11
4.3
 21
5.0
 31
0.0
  0
LINE
  8
Layer-0
  6
CONTINUOUS
 62
    15
  5
39
 10
4.3
 20
5.0
 30
0.0
 11
4.7
 21
5.0
 31
0.0
  0
LINE
  8
Layer-0
  6
CONTINUOUS
 62
    15
  5
3A
 10
4.7
 20
5.0
 30
0.0
 11
4.7
 21
5.6
 31
0.0
  0
LINE
  8
Layer-0
  6
CONTINUOUS
 62
    15
  5
3B
 10
4.7
 20
5.6
 30
0.0
 11
4.3
 21
5.6
 31
0.0
  0
LINE
  8
Layer-0
  6
CONTINUOUS
 62
    15
  5
3C
 10
4.7
 20
5.5
 30
0.0
 11
4.8
 21
5.5
 31
0.0
  0
TEXT
  8
Layer-0
  6
CONTINUOUS
 62
    11
  5
3D
 10
4.4
 20
5.4
 30
0.0
 40
0.1
  1
O
  7
VC-TEXTSTYLE0
  0
TEXT
  8
Layer-0
  6
CONTINUOUS
 62
    11
  5
3E
 10
4.4
 20
5.25
 30
0.0
 40
0.1
  1
S
  7
VC-TEXTSTYLE0
  0
TEXT
  8
Layer-0
  6
CONTINUOUS
 62
    11
  5
3F
 10
4.4
 20
5.1
 30
0.0
 40
0.1
  1
C
  7
VC-TEXTSTYLE0
  0
LINE
  8
Layer-0
  6
CONTINUOUS
 62
    15
  5
40
 10
4.5
 20
5.6
 30
0.0
 11
4.5
 21
6.15
 31
0.0
  0
LINE
  8
Layer-0
  6
CONTINUOUS
 62
    15
  5
41
 10
4.5
 20
6.15
 30
0.0
 11
4.2
 21
6.15
 31
0.0
  0
LINE
  8
Layer-0
  6
CONTINUOUS
 62
    15
  5
42
 10
4.2
 20
6.15
 30
0.0
 11
4.2
 21
6.1
 31
0.0
  0
TEXT
  8
Layer-0
  6
CONTINUOUS
 62
    11
  5
43
 10
3.7
 20
6.3
 30
0.0
 40
0.2
  1
NE602
  7
VC-TEXTSTYLE0
  0
ARC
  8
Layer-0
  6
CONTINUOUS
 62
    15
  5
44
 10
2.4
 20
5.0
 30
0.0
 40
0.1
 50
90.0
 51
270.0
  0
ARC
  8
Layer-0
  6
CONTINUOUS
 62
    15
  5
45
 10
2.4
 20
4.8
 30
0.0
 40
0.1
 50
90.0
 51
270.0
  0
ARC
  8
Layer-0
  6
CONTINUOUS
 62
    15
  5
46
 10
2.4
 20
4.6
 30
0.0
 40
0.1
 50
90.0
 51
270.0
  0
ARC
  8
Layer-0
  6
CONTINUOUS
 62
    15
  5
47
 10
2.4
 20
4.400001
 30
0.0
 40
0.1
 50
90.0
 51
270.0
  0
ARC
  8
Layer-0
  6
CONTINUOUS
 62
    15
  5
48
 10
2.4
 20
4.200001
 30
0.0
 40
0.1
 50
90.0
 51
270.0
  0
ARC
  8
Layer-0
  6
CONTINUOUS
 62
    15
  5
49
 10
2.4
 20
4.000001
 30
0.0
 40
0.1
 50
90.0
 51
270.0
  0
ARC
  8
Layer-0
  6
CONTINUOUS
 62
    15
  5
4A
 10
2.0
 20
5.0
 30
0.0
 40
0.1
 50
270.0
 51
450.0
  0
ARC
  8
Layer-0
  6
CONTINUOUS
 62
    15
  5
4B
 10
2.0
 20
4.8
 30
0.0
 40
0.1
 50
270.0
 51
450.0
  0
LINE
  8
Layer-0
  6
CONTINUOUS
 62
    15
  5
4C
 10
3.2
 20
5.1
 30
0.0
 11
2.4
 21
5.1
 31
0.0
  0
LINE
  8
Layer-0
  6
CONTINUOUS
 62
    15
  5
4D
 10
2.4
 20
3.9
 30
0.0
 11
3.2
 21
3.9
 31
0.0
  0
LINE
  8
Layer-0
  6
CONTINUOUS
 62
    15
  5
4E
 10
3.2
 20
3.9
 30
0.0
 11
3.2
 21
4.7
 31
0.0
  0
LINE
  8
Layer-0
  6
CONTINUOUS
 62
    15
  5
4F
 10
2.8
 20
5.1
 30
0.0
 11
2.8
 21
4.6
 31
0.0
  0
LINE
  8
Layer-0
  6
CONTINUOUS
 62
    15
  5
50
 10
2.8
 20
4.6
 30
0.0
 11
2.6
 21
4.6
 31
0.0
  0
LINE
  8
Layer-0
  6
CONTINUOUS
 62
    15
  5
51
 10
2.8
 20
4.6
 30
0.0
 11
3.0
 21
4.6
 31
0.0
  0
LINE
  8
Layer-0
  6
CONTINUOUS
 62
    15
  5
52
 10
2.6
 20
4.4
 30
0.0
 11
3.0
 21
4.4
 31
0.0
  0
LINE
  8
Layer-0
  6
CONTINUOUS
 62
    15
  5
53
 10
2.8
 20
4.4
 30
0.0
 11
2.8
 21
3.9
 31
0.0
  0
LINE
  8
Layer-0
  6
CONTINUOUS
 62
    15
  5
54
 10
2.7
 20
4.2
 30
0.0
 11
3.0
 21
4.8
 31
0.0
  0
LINE
  8
Layer-0
  6
CONTINUOUS
 62
    15
  5
55
 10
3.0
 20
4.8
 30
0.0
 11
2.9
 21
4.725
 31
0.0
  0
LINE
  8
Layer-0
  6
CONTINUOUS
 62
    15
  5
56
 10
2.9
 20
4.725
 30
0.0
 11
3.0
 21
4.675
 31
0.0
  0
LINE
  8
Layer-0
  6
CONTINUOUS
 62
    15
  5
57
 10
3.0
 20
4.675
 30
0.0
 11
3.0
 21
4.8
 31
0.0
  0
LINE
  8
Layer-0
  6
CONTINUOUS
 62
    15
  5
58
 10
3.2
 20
5.9
 30
0.0
 11
3.2
 21
7.6
 31
0.0
  0
LINE
  8
Layer-0
  6
CONTINUOUS
 62
    15
  5
59
 10
3.2
 20
5.5
 30
0.0
 11
3.0
 21
5.5
 31
0.0
  0
LINE
  8
Layer-0
  6
CONTINUOUS
 62
    15
  5
5A
 10
2.6
 20
5.1
 30
0.0
 11
2.6
 21
5.5
 31
0.0
  0
LINE
  8
Layer-0
  6
CONTINUOUS
 62
    15
  5
5B
 10
2.6
 20
5.5
 30
0.0
 11
2.4
 21
5.5
 31
0.0
  0
LINE
  8
Layer-0
  6
CONTINUOUS
 62
    15
  5
5C
 10
2.6
 20
5.5
 30
0.0
 11
2.8
 21
5.5
 31
0.0
  0
LINE
  8
Layer-0
  6
CONTINUOUS
 62
    15
  5
5D
 10
2.4
 20
5.7
 30
0.0
 11
2.8
 21
5.7
 31
0.0
  0
LINE
  8
Layer-0
  6
CONTINUOUS
 62
    15
  5
5E
 10
3.0
 20
5.5
 30
0.0
 11
3.0
 21
6.1
 31
0.0
  0
LINE
  8
Layer-0
  6
CONTINUOUS
 62
    15
  5
5F
 10
3.0
 20
6.1
 30
0.0
 11
2.6
 21
6.1
 31
0.0
  0
LINE
  8
Layer-0
  6
CONTINUOUS
 62
    15
  5
60
 10
2.6
 20
6.1
 30
0.0
 11
2.6
 21
5.7
 31
0.0
  0
LINE
  8
Layer-0
  6
CONTINUOUS
 62
    15
  5
61
 10
2.6
 20
6.1
 30
0.0
 11
1.6
 21
6.1
 31
0.0
  0
LINE
  8
Layer-0
  6
CONTINUOUS
 62
    15
  5
62
 10
1.6
 20
6.1
 30
0.0
 11
1.6
 21
5.8
 31
0.0
  0
LINE
  8
Layer-0
  6
CONTINUOUS
 62
    15
  5
63
 10
1.6
 20
5.8
 30
0.0
 11
1.5
 21
5.8
 31
0.0
  0
LINE
  8
Layer-0
  6
CONTINUOUS
 62
    15
  5
64
 10
1.5
 20
5.8
 30
0.0
 11
1.6
 21
5.6
 31
0.0
  0
LINE
  8
Layer-0
  6
CONTINUOUS
 62
    15
  5
65
 10
1.6
 20
5.6
 30
0.0
 11
1.7
 21
5.8
 31
0.0
  0
LINE
  8
Layer-0
  6
CONTINUOUS
 62
    15
  5
66
 10
1.7
 20
5.8
 30
0.0
 11
1.6
 21
5.8
 31
0.0
  0
LINE
  8
Layer-0
  6
CONTINUOUS
 62
    15
  5
67
 10
2.0
 20
4.7
 30
0.0
 11
2.0
 21
4.7
 31
0.0
  0
LINE
  8
Layer-0
  6
CONTINUOUS
 62
    15
  5
68
 10
2.0
 20
4.7
 30
0.0
 11
1.0
 21
4.7
 31
0.0
  0
CIRCLE
  8
Layer-0
  6
CONTINUOUS
 62
    15
  5
69
 10
1.0
 20
4.7
 30
0.0
 40
0.05
  0
CIRCLE
  8
Layer-0
  6
CONTINUOUS
 62
    15
  5
6A
 10
1.0
 20
4.7
 30
0.0
 40
0.2
  0
LINE
  8
Layer-0
  6
CONTINUOUS
 62
    15
  5
6B
 10
1.0
 20
4.9
 30
0.0
 11
1.0
 21
5.1
 31
0.0
  0
LINE
  8
Layer-0
  6
CONTINUOUS
 62
    15
  5
6C
 10
1.0
 20
5.1
 30
0.0
 11
2.0
 21
5.1
 31
0.0
  0
LINE
  8
Layer-0
  6
CONTINUOUS
 62
    15
  5
6D
 10
1.0
 20
4.5
 30
0.0
 11
1.0
 21
4.2
 31
0.0
  0
LINE
  8
Layer-0
  6
CONTINUOUS
 62
    15
  5
6E
 10
1.0
 20
4.2
 30
0.0
 11
0.9
 21
4.2
 31
0.0
  0
LINE
  8
Layer-0
  6
CONTINUOUS
 62
    15
  5
6F
 10
0.9
 20
4.2
 30
0.0
 11
1.0
 21
4.0
 31
0.0
  0
LINE
  8
Layer-0
  6
CONTINUOUS
 62
    15
  5
70
 10
1.0
 20
4.0
 30
0.0
 11
1.1
 21
4.2
 31
0.0
  0
LINE
  8
Layer-0
  6
CONTINUOUS
 62
    15
  5
71
 10
1.1
 20
4.2
 30
0.0
 11
1.0
 21
4.2
 31
0.0
  0
LINE
  8
Layer-0
  6
CONTINUOUS
 62
    15
  5
72
 10
5.2
 20
4.7
 30
0.0
 11
5.4
 21
4.7
 31
0.0
  0
LINE
  8
Layer-0
  6
CONTINUOUS
 62
    15
  5
73
 10
5.4
 20
4.7
 30
0.0
 11
5.4
 21
3.9
 31
0.0
  0
LINE
  8
Layer-0
  6
CONTINUOUS
 62
    15
  5
74
 10
5.4
 20
3.9
 30
0.0
 11
5.3
 21
3.8
 31
0.0
  0
LINE
  8
Layer-0
  6
CONTINUOUS
 62
    15
  5
75
 10
5.3
 20
3.8
 30
0.0
 11
5.5
 21
3.7
 31
0.0
  0
LINE
  8
Layer-0
  6
CONTINUOUS
 62
    15
  5
76
 10
5.5
 20
3.7
 30
0.0
 11
5.3
 21
3.5
 31
0.0
  0
LINE
  8
Layer-0
  6
CONTINUOUS
 62
    15
  5
77
 10
5.3
 20
3.5
 30
0.0
 11
5.5
 21
3.4
 31
0.0
  0
LINE
  8
Layer-0
  6
CONTINUOUS
 62
    15
  5
78
 10
5.5
 20
3.4
 30
0.0
 11
5.3
 21
3.2
 31
0.0
  0
LINE
  8
Layer-0
  6
CONTINUOUS
 62
    15
  5
79
 10
5.3
 20
3.2
 30
0.0
 11
5.5
 21
3.1
 31
0.0
  0
LINE
  8
Layer-0
  6
CONTINUOUS
 62
    15
  5
7A
 10
5.5
 20
3.1
 30
0.0
 11
5.4
 21
3.0
 31
0.0
  0
LINE
  8
Layer-0
  6
CONTINUOUS
 62
    15
  5
7B
 10
5.4
 20
3.0
 30
0.0
 11
5.4
 21
2.6
 31
0.0
  0
LINE
  8
Layer-0
  6
CONTINUOUS
 62
    15
  5
7C
 10
5.4
 20
4.1
 30
0.0
 11
4.7
 21
4.1
 31
0.0
  0
LINE
  8
Layer-0
  6
CONTINUOUS
 62
    15
  5
7D
 10
4.7
 20
4.1
 30
0.0
 11
4.4
 21
4.1
 31
0.0
  0
LINE
  8
Layer-0
  6
CONTINUOUS
 62
    15
  5
7E
 10
4.4
 20
4.1
 30
0.0
 11
4.4
 21
3.6
 31
0.0
  0
LINE
  8
Layer-0
  6
CONTINUOUS
 62
    15
  5
7F
 10
4.4
 20
3.6
 30
0.0
 11
4.2
 21
3.6
 31
0.0
  0
LINE
  8
Layer-0
  6
CONTINUOUS
 62
    15
  5
80
 10
4.4
 20
3.6
 30
0.0
 11
4.6
 21
3.6
 31
0.0
  0
LINE
  8
Layer-0
  6
CONTINUOUS
 62
    15
  5
81
 10
4.2
 20
3.4
 30
0.0
 11
4.6
 21
3.4
 31
0.0
  0
LINE
  8
Layer-0
  6
CONTINUOUS
 62
    15
  5
82
 10
4.4
 20
3.4
 30
0.0
 11
4.4
 21
3.0
 31
0.0
  0
LINE
  8
Layer-0
  6
CONTINUOUS
 62
    15
  5
83
 10
4.4
 20
3.0
 30
0.0
 11
4.3
 21
3.0
 31
0.0
  0
LINE
  8
Layer-0
  6
CONTINUOUS
 62
    15
  5
84
 10
4.3
 20
3.0
 30
0.0
 11
4.4
 21
2.8
 31
0.0
  0
LINE
  8
Layer-0
  6
CONTINUOUS
 62
    15
  5
85
 10
4.4
 20
2.8
 30
0.0
 11
4.5
 21
3.0
 31
0.0
  0
LINE
  8
Layer-0
  6
CONTINUOUS
 62
    15
  5
86
 10
4.5
 20
3.0
 30
0.0
 11
4.4
 21
3.0
 31
0.0
  0
LINE
  8
Layer-0
  6
CONTINUOUS
 62
    15
  5
87
 10
5.2
 20
5.1
 30
0.0
 11
5.9
 21
5.1
 31
0.0
  0
LINE
  8
Layer-0
  6
CONTINUOUS
 62
    15
  5
88
 10
5.2
 20
5.5
 30
0.0
 11
5.6
 21
5.5
 31
0.0
  0
LINE
  8
Layer-0
  6
CONTINUOUS
 62
    15
  5
89
 10
6.6
 20
5.5
 30
0.0
 11
6.6
 21
5.1
 31
0.0
  0
LINE
  8
Layer-0
  6
CONTINUOUS
 62
    15
  5
8A
 10
6.6
 20
5.1
 30
0.0
 11
6.8
 21
5.1
 31
0.0
  0
LINE
  8
Layer-0
  6
CONTINUOUS
 62
    15
  5
8B
 10
6.6
 20
5.1
 30
0.0
 11
6.4
 21
5.1
 31
0.0
  0
LINE
  8
Layer-0
  6
CONTINUOUS
 62
    15
  5
8C
 10
6.4
 20
4.9
 30
0.0
 11
6.8
 21
4.9
 31
0.0
  0
LINE
  8
Layer-0
  6
CONTINUOUS
 62
    15
  5
8D
 10
5.9
 20
5.1
 30
0.0
 11
5.9
 21
4.2
 31
0.0
  0
LINE
  8
Layer-0
  6
CONTINUOUS
 62
    15
  5
8E
 10
5.9
 20
4.2
 30
0.0
 11
5.7
 21
4.2
 31
0.0
  0
LINE
  8
Layer-0
  6
CONTINUOUS
 62
    15
  5
8F
 10
5.9
 20
4.2
 30
0.0
 11
6.1
 21
4.2
 31
0.0
  0
LINE
  8
Layer-0
  6
CONTINUOUS
 62
    15
  5
90
 10
5.7
 20
4.0
 30
0.0
 11
6.1
 21
4.0
 31
0.0
  0
LINE
  8
Layer-0
  6
CONTINUOUS
 62
    15
  5
91
 10
5.9
 20
4.0
 30
0.0
 11
5.9
 21
3.6
 31
0.0
  0
LINE
  8
Layer-0
  6
CONTINUOUS
 62
    15
  5
92
 10
5.9
 20
3.6
 30
0.0
 11
5.8
 21
3.6
 31
0.0
  0
LINE
  8
Layer-0
  6
CONTINUOUS
 62
    15
  5
93
 10
5.8
 20
3.6
 30
0.0
 11
5.9
 21
3.4
 31
0.0
  0
LINE
  8
Layer-0
  6
CONTINUOUS
 62
    15
  5
94
 10
5.9
 20
3.4
 30
0.0
 11
6.0
 21
3.6
 31
0.0
  0
LINE
  8
Layer-0
  6
CONTINUOUS
 62
    15
  5
95
 10
6.0
 20
3.6
 30
0.0
 11
5.9
 21
3.6
 31
0.0
  0
LINE
  8
Layer-0
  6
CONTINUOUS
 62
    15
  5
96
 10
5.9
 20
4.5
 30
0.0
 11
6.6
 21
4.5
 31
0.0
  0
LINE
  8
Layer-0
  6
CONTINUOUS
 62
    15
  5
97
 10
6.6
 20
4.5
 30
0.0
 11
6.6
 21
4.9
 31
0.0
  0
LINE
  8
Layer-0
  6
CONTINUOUS
 62
    15
  5
98
 10
11.7
 20
7.3
 30
0.0
 11
10.1
 21
7.3
 31
0.0
  0
TEXT
  8
Layer-0
  6
CONTINUOUS
 62
    11
  5
99
 10
10.2
 20
7.6
 30
0.0
 40
0.1
  1
1
  7
VC-TEXTSTYLE0
  0
TEXT
  8
Layer-0
  6
CONTINUOUS
 62
    11
  5
9A
 10
11.499999
 20
7.6
 30
0.0
 40
0.1
  1
8
  7
VC-TEXTSTYLE0
  0
TEXT
  8
Layer-0
  6
CONTINUOUS
 62
    11
  5
9B
 10
10.2
 20
8.0
 30
0.0
 40
0.1
  1
2
  7
VC-TEXTSTYLE0
  0
TEXT
  8
Layer-0
  6
CONTINUOUS
 62
    11
  5
9C
 10
10.2
 20
8.4
 30
0.0
 40
0.1
  1
3
  7
VC-TEXTSTYLE0
  0
TEXT
  8
Layer-0
  6
CONTINUOUS
 62
    11
  5
9D
 10
10.2
 20
8.8
 30
0.0
 40
0.1
  1
4
  7
VC-TEXTSTYLE0
  0
TEXT
  8
Layer-0
  6
CONTINUOUS
 62
    11
  5
9E
 10
11.499998
 20
8.8
 30
0.0
 40
0.1
  1
5
  7
VC-TEXTSTYLE0
  0
TEXT
  8
Layer-0
  6
CONTINUOUS
 62
    11
  5
9F
 10
11.499998
 20
8.4
 30
0.0
 40
0.1
  1
6
  7
VC-TEXTSTYLE0
  0
TEXT
  8
Layer-0
  6
CONTINUOUS
 62
    11
  5
A0
 10
11.499998
 20
8.0
 30
0.0
 40
0.1
  1
7
  7
VC-TEXTSTYLE0
  0
LINE
  8
Layer-0
  6
CONTINUOUS
 62
    15
  5
A1
 10
6.6
 20
4.5
 30
0.0
 11
6.6
 21
3.8
 31
0.0
  0
LINE
  8
Layer-0
  6
CONTINUOUS
 62
    15
  5
A2
 10
6.6
 20
3.8
 30
0.0
 11
6.6
 21
3.4
 31
0.0
  0
LINE
  8
Layer-0
  6
CONTINUOUS
 62
    15
  5
A3
 10
6.6
 20
3.4
 30
0.0
 11
6.8
 21
3.4
 31
0.0
  0
LINE
  8
Layer-0
  6
CONTINUOUS
 62
    15
  5
A4
 10
6.6
 20
3.4
 30
0.0
 11
6.4
 21
3.4
 31
0.0
  0
LINE
  8
Layer-0
  6
CONTINUOUS
 62
    15
  5
A5
 10
6.4
 20
3.2
 30
0.0
 11
6.8
 21
3.2
 31
0.0
  0
LINE
  8
Layer-0
  6
CONTINUOUS
 62
    15
  5
A6
 10
6.6
 20
2.8
 30
0.0
 11
6.6
 21
3.2
 31
0.0
  0
LINE
  8
Layer-0
  6
CONTINUOUS
 62
    15
  5
A7
 10
10.8
 20
3.0
 30
0.0
 11
10.8
 21
2.4
 31
0.0
  0
LINE
  8
Layer-0
  6
CONTINUOUS
 62
    15
  5
A8
 10
10.8
 20
2.4
 30
0.0
 11
10.8
 21
2.2
 31
0.0
  0
LINE
  8
Layer-0
  6
CONTINUOUS
 62
    15
  5
A9
 10
11.2
 20
1.6
 30
0.0
 11
11.1
 21
1.5
 31
0.0
  0
LINE
  8
Layer-0
  6
CONTINUOUS
 62
    15
  5
AA
 10
11.1
 20
1.5
 30
0.0
 11
11.299999
 21
1.4
 31
0.0
  0
LINE
  8
Layer-0
  6
CONTINUOUS
 62
    15
  5
AB
 10
11.299999
 20
1.4
 30
0.0
 11
11.1
 21
1.2
 31
0.0
  0
LINE
  8
Layer-0
  6
CONTINUOUS
 62
    15
  5
AC
 10
11.1
 20
1.2
 30
0.0
 11
11.299999
 21
1.1
 31
0.0
  0
LINE
  8
Layer-0
  6
CONTINUOUS
 62
    15
  5
AD
 10
11.299999
 20
1.1
 30
0.0
 11
11.1
 21
0.9
 31
0.0
  0
LINE
  8
Layer-0
  6
CONTINUOUS
 62
    15
  5
AE
 10
11.1
 20
0.9
 30
0.0
 11
11.299999
 21
0.8
 31
0.0
  0
LINE
  8
Layer-0
  6
CONTINUOUS
 62
    15
  5
AF
 10
11.299999
 20
0.8
 30
0.0
 11
11.2
 21
0.7
 31
0.0
  0
LINE
  8
Layer-0
  6
CONTINUOUS
 62
    15
  5
B0
 10
11.2
 20
1.7
 30
0.0
 11
11.2
 21
2.1
 31
0.0
  0
LINE
  8
Layer-0
  6
CONTINUOUS
 62
    15
  5
B1
 10
11.2
 20
1.6
 30
0.0
 11
11.2
 21
1.7
 31
0.0
  0
LINE
  8
Layer-0
  6
CONTINUOUS
 62
    15
  5
B2
 10
11.2
 20
0.7
 30
0.0
 11
11.2
 21
0.3
 31
0.0
  0
LINE
  8
Layer-0
  6
CONTINUOUS
 62
    15
  5
B3
 10
11.2
 20
0.3
 30
0.0
 11
11.1
 21
0.3
 31
0.0
  0
LINE
  8
Layer-0
  6
CONTINUOUS
 62
    15
  5
B4
 10
11.1
 20
0.3
 30
0.0
 11
11.2
 21
0.1
 31
0.0
  0
LINE
  8
Layer-0
  6
CONTINUOUS
 62
    15
  5
B5
 10
11.2
 20
0.1
 30
0.0
 11
11.3
 21
0.3
 31
0.0
  0
LINE
  8
Layer-0
  6
CONTINUOUS
 62
    15
  5
B6
 10
11.3
 20
0.3
 30
0.0
 11
11.2
 21
0.3
 31
0.0
  0
LINE
  8
Layer-0
  6
CONTINUOUS
 62
    15
  5
B7
 10
11.2
 20
3.3
 30
0.0
 11
11.2
 21
3.9
 31
0.0
  0
LINE
  8
Layer-0
  6
CONTINUOUS
 62
    15
  5
B8
 10
11.2
 20
4.8
 30
0.0
 11
11.1
 21
4.7
 31
0.0
  0
LINE
  8
Layer-0
  6
CONTINUOUS
 62
    15
  5
B9
 10
11.1
 20
4.7
 30
0.0
 11
11.299999
 21
4.6
 31
0.0
  0
LINE
  8
Layer-0
  6
CONTINUOUS
 62
    15
  5
BA
 10
11.299999
 20
4.6
 30
0.0
 11
11.1
 21
4.4
 31
0.0
  0
LINE
  8
Layer-0
  6
CONTINUOUS
 62
    15
  5
BB
 10
11.1
 20
4.4
 30
0.0
 11
11.299999
 21
4.3
 31
0.0
  0
LINE
  8
Layer-0
  6
CONTINUOUS
 62
    15
  5
BC
 10
11.299999
 20
4.3
 30
0.0
 11
11.1
 21
4.1
 31
0.0
  0
LINE
  8
Layer-0
  6
CONTINUOUS
 62
    15
  5
BD
 10
11.1
 20
4.1
 30
0.0
 11
11.299999
 21
4.0
 31
0.0
  0
LINE
  8
Layer-0
  6
CONTINUOUS
 62
    15
  5
BE
 10
11.299999
 20
4.0
 30
0.0
 11
11.2
 21
3.9
 31
0.0
  0
LINE
  8
Layer-0
  6
CONTINUOUS
 62
    15
  5
BF
 10
11.2
 20
3.9
 30
0.0
 11
11.2
 21
3.7
 31
0.0
  0
LINE
  8
Layer-0
  6
CONTINUOUS
 62
    15
  5
C0
 10
11.2
 20
4.799999
 30
0.0
 11
11.2
 21
5.1
 31
0.0
  0
LINE
  8
Layer-0
  6
CONTINUOUS
 62
    15
  5
C1
 10
10.2
 20
2.7
 30
0.0
 11
10.2
 21
5.1
 31
0.0
  0
LINE
  8
Layer-0
  6
CONTINUOUS
 62
    15
  5
C2
 10
10.2
 20
5.1
 30
0.0
 11
11.1
 21
5.1
 31
0.0
  0
LINE
  8
Layer-0
  6
CONTINUOUS
 62
    15
  5
C3
 10
11.1
 20
5.1
 30
0.0
 11
11.2
 21
5.1
 31
0.0
  0
ARC
  8
Layer-0
  6
CONTINUOUS
 62
    15
  5
C4
 10
10.2
 20
2.6
 30
0.0
 40
0.1
 50
90.0
 51
270.0
  0
LINE
  8
Layer-0
  6
CONTINUOUS
 62
    15
  5
C5
 10
10.2
 20
2.4
 30
0.0
 11
10.2
 21
2.5
 31
0.0
  0
LINE
  8
Layer-0
  6
CONTINUOUS
 62
    15
  5
C6
 10
11.2
 20
2.0
 30
0.0
 11
11.7
 21
2.0
 31
0.0
  0
LINE
  8
Layer-0
  6
CONTINUOUS
 62
    15
  5
C7
 10
11.7
 20
2.0
 30
0.0
 11
11.7
 21
2.2
 31
0.0
  0
LINE
  8
Layer-0
  6
CONTINUOUS
 62
    15
  5
C8
 10
11.7
 20
2.0
 30
0.0
 11
11.7
 21
1.8
 31
0.0
  0
LINE
  8
Layer-0
  6
CONTINUOUS
 62
    15
  5
C9
 10
11.900001
 20
1.8
 30
0.0
 11
11.900001
 21
2.2
 31
0.0
  0
LINE
  8
Layer-0
  6
CONTINUOUS
 62
    15
  5
CA
 10
11.900001
 20
2.0
 30
0.0
 11
12.6
 21
2.0
 31
0.0
  0
CIRCLE
  8
Layer-0
  6
CONTINUOUS
 62
    15
  5
CB
 10
12.8
 20
2.0
 30
0.0
 40
0.05
  0
CIRCLE
  8
Layer-0
  6
CONTINUOUS
 62
    15
  5
CC
 10
12.8
 20
2.0
 30
0.0
 40
0.2
  0
LINE
  8
Layer-0
  6
CONTINUOUS
 62
    15
  5
CD
 10
12.6
 20
2.0
 30
0.0
 11
12.8
 21
2.0
 31
0.0
  0
LINE
  8
Layer-0
  6
CONTINUOUS
 62
    15
  5
CE
 10
12.8
 20
1.8
 30
0.0
 11
12.8
 21
1.5
 31
0.0
  0
LINE
  8
Layer-0
  6
CONTINUOUS
 62
    15
  5
CF
 10
12.8
 20
1.5
 30
0.0
 11
12.7
 21
1.5
 31
0.0
  0
LINE
  8
Layer-0
  6
CONTINUOUS
 62
    15
  5
D0
 10
12.7
 20
1.5
 30
0.0
 11
12.8
 21
1.3
 31
0.0
  0
LINE
  8
Layer-0
  6
CONTINUOUS
 62
    15
  5
D1
 10
12.8
 20
1.3
 30
0.0
 11
12.900001
 21
1.5
 31
0.0
  0
LINE
  8
Layer-0
  6
CONTINUOUS
 62
    15
  5
D2
 10
12.900001
 20
1.5
 30
0.0
 11
12.8
 21
1.5
 31
0.0
  0
LINE
  8
Layer-0
  6
CONTINUOUS
 62
    15
  5
D3
 10
12.299999
 20
3.5
 30
0.0
 11
11.9
 21
3.5
 31
0.0
  0
LINE
  8
Layer-0
  6
CONTINUOUS
 62
    15
  5
D4
 10
11.9
 20
3.7
 30
0.0
 11
11.9
 21
3.7
 31
0.0
  0
LINE
  8
Layer-0
  6
CONTINUOUS
 62
    15
  5
D5
 10
11.9
 20
3.7
 30
0.0
 11
11.9
 21
3.3
 31
0.0
  0
LINE
  8
Layer-0
  6
CONTINUOUS
 62
    15
  5
D6
 10
11.7
 20
3.7
 30
0.0
 11
11.7
 21
3.3
 31
0.0
  0
LINE
  8
Layer-0
  6
CONTINUOUS
 62
    15
  5
D7
 10
12.299999
 20
3.5
 30
0.0
 11
12.299999
 21
3.0
 31
0.0
  0
LINE
  8
Layer-0
  6
CONTINUOUS
 62
    15
  5
D8
 10
12.299999
 20
3.0
 30
0.0
 11
12.2
 21
3.0
 31
0.0
  0
LINE
  8
Layer-0
  6
CONTINUOUS
 62
    15
  5
D9
 10
12.2
 20
3.0
 30
0.0
 11
12.299999
 21
2.8
 31
0.0
  0
LINE
  8
Layer-0
  6
CONTINUOUS
 62
    15
  5
DA
 10
12.299999
 20
2.8
 30
0.0
 11
12.4
 21
3.0
 31
0.0
  0
LINE
  8
Layer-0
  6
CONTINUOUS
 62
    15
  5
DB
 10
12.4
 20
3.0
 30
0.0
 11
12.299999
 21
3.0
 31
0.0
  0
LINE
  8
Layer-0
  6
CONTINUOUS
 62
    15
  5
DC
 10
11.7
 20
3.5
 30
0.0
 11
11.2
 21
3.5
 31
0.0
  0
LINE
  8
Layer-0
  6
CONTINUOUS
 62
    15
  5
DD
 10
3.5
 20
7.6
 30
0.0
 11
3.6
 21
7.5
 31
0.0
  0
LINE
  8
Layer-0
  6
CONTINUOUS
 62
    15
  5
DE
 10
3.6
 20
7.5
 30
0.0
 11
3.7
 21
7.699999
 31
0.0
  0
LINE
  8
Layer-0
  6
CONTINUOUS
 62
    15
  5
DF
 10
3.7
 20
7.699999
 30
0.0
 11
3.9
 21
7.5
 31
0.0
  0
LINE
  8
Layer-0
  6
CONTINUOUS
 62
    15
  5
E0
 10
3.9
 20
7.5
 30
0.0
 11
4.0
 21
7.699999
 31
0.0
  0
LINE
  8
Layer-0
  6
CONTINUOUS
 62
    15
  5
E1
 10
4.0
 20
7.699999
 30
0.0
 11
4.2
 21
7.5
 31
0.0
  0
LINE
  8
Layer-0
  6
CONTINUOUS
 62
    15
  5
E2
 10
4.2
 20
7.5
 30
0.0
 11
4.3
 21
7.699999
 31
0.0
  0
LINE
  8
Layer-0
  6
CONTINUOUS
 62
    15
  5
E3
 10
4.3
 20
7.699999
 30
0.0
 11
4.400001
 21
7.6
 31
0.0
  0
LINE
  8
Layer-0
  6
CONTINUOUS
 62
    15
  5
E4
 10
4.400001
 20
7.6
 30
0.0
 11
4.6
 21
7.6
 31
0.0
  0
LINE
  8
Layer-0
  6
CONTINUOUS
 62
    15
  5
E5
 10
3.500001
 20
7.6
 30
0.0
 11
3.2
 21
7.6
 31
0.0
  0
LINE
  8
Layer-0
  6
CONTINUOUS
 62
    15
  5
E6
 10
5.1
 20
7.6
 30
0.0
 11
5.1
 21
7.8
 31
0.0
  0
LINE
  8
Layer-0
  6
CONTINUOUS
 62
    15
  5
E7
 10
5.1
 20
7.6
 30
0.0
 11
5.1
 21
7.4
 31
0.0
  0
LINE
  8
Layer-0
  6
CONTINUOUS
 62
    15
  5
E8
 10
5.3
 20
7.6
 30
0.0
 11
5.3
 21
7.8
 31
0.0
  0
LINE
  8
Layer-0
  6
CONTINUOUS
 62
    15
  5
E9
 10
5.3
 20
7.6
 30
0.0
 11
5.3
 21
7.4
 31
0.0
  0
LINE
  8
Layer-0
  6
CONTINUOUS
 62
    15
  5
EA
 10
6.3
 20
7.6
 30
0.0
 11
6.3
 21
7.8
 31
0.0
  0
LINE
  8
Layer-0
  6
CONTINUOUS
 62
    15
  5
EB
 10
6.3
 20
7.6
 30
0.0
 11
6.3
 21
7.4
 31
0.0
  0
LINE
  8
Layer-0
  6
CONTINUOUS
 62
    15
  5
EC
 10
6.5
 20
7.6
 30
0.0
 11
6.5
 21
7.8
 31
0.0
  0
LINE
  8
Layer-0
  6
CONTINUOUS
 62
    15
  5
ED
 10
6.5
 20
7.6
 30
0.0
 11
6.5
 21
7.4
 31
0.0
  0
LINE
  8
Layer-0
  6
CONTINUOUS
 62
    15
  5
EE
 10
6.3
 20
7.6
 30
0.0
 11
5.3
 21
7.6
 31
0.0
  0
LINE
  8
Layer-0
  6
CONTINUOUS
 62
    15
  5
EF
 10
5.8
 20
7.6
 30
0.0
 11
5.8
 21
7.2
 31
0.0
  0
LINE
  8
Layer-0
  6
CONTINUOUS
 62
    15
  5
F0
 10
5.8
 20
7.2
 30
0.0
 11
5.7
 21
7.2
 31
0.0
  0
LINE
  8
Layer-0
  6
CONTINUOUS
 62
    15
  5
F1
 10
5.7
 20
7.2
 30
0.0
 11
5.8
 21
7.0
 31
0.0
  0
LINE
  8
Layer-0
  6
CONTINUOUS
 62
    15
  5
F2
 10
5.8
 20
7.0
 30
0.0
 11
5.9
 21
7.2
 31
0.0
  0
LINE
  8
Layer-0
  6
CONTINUOUS
 62
    15
  5
F3
 10
5.9
 20
7.2
 30
0.0
 11
5.8
 21
7.2
 31
0.0
  0
LINE
  8
Layer-0
  6
CONTINUOUS
 62
    15
  5
F4
 10
4.6
 20
7.6
 30
0.0
 11
5.1
 21
7.6
 31
0.0
  0
LINE
  8
Layer-0
  6
CONTINUOUS
 62
    15
  5
F5
 10
5.8
 20
5.9
 30
0.0
 11
5.9
 21
5.800001
 31
0.0
  0
LINE
  8
Layer-0
  6
CONTINUOUS
 62
    15
  5
F6
 10
5.9
 20
5.800001
 30
0.0
 11
6.0
 21
6.0
 31
0.0
  0
LINE
  8
Layer-0
  6
CONTINUOUS
 62
    15
  5
F7
 10
6.0
 20
6.0
 30
0.0
 11
6.2
 21
5.800001
 31
0.0
  0
LINE
  8
Layer-0
  6
CONTINUOUS
 62
    15
  5
F8
 10
6.2
 20
5.800001
 30
0.0
 11
6.3
 21
6.0
 31
0.0
  0
LINE
  8
Layer-0
  6
CONTINUOUS
 62
    15
  5
F9
 10
6.3
 20
6.0
 30
0.0
 11
6.5
 21
5.800001
 31
0.0
  0
LINE
  8
Layer-0
  6
CONTINUOUS
 62
    15
  5
FA
 10
6.5
 20
5.800001
 30
0.0
 11
6.6
 21
6.0
 31
0.0
  0
LINE
  8
Layer-0
  6
CONTINUOUS
 62
    15
  5
FB
 10
6.6
 20
6.0
 30
0.0
 11
6.700001
 21
5.9
 31
0.0
  0
LINE
  8
Layer-0
  6
CONTINUOUS
 62
    15
  5
FC
 10
6.700001
 20
5.9
 30
0.0
 11
6.900001
 21
5.9
 31
0.0
  0
LINE
  8
Layer-0
  6
CONTINUOUS
 62
    15
  5
FD
 10
5.800001
 20
5.9
 30
0.0
 11
5.5
 21
5.9
 31
0.0
  0
LINE
  8
Layer-0
  6
CONTINUOUS
 62
    15
  5
FE
 10
5.2
 20
5.9
 30
0.0
 11
5.6
 21
5.9
 31
0.0
  0
LINE
  8
Layer-0
  6
CONTINUOUS
 62
    15
  5
FF
 10
6.5
 20
7.6
 30
0.0
 11
7.2
 21
7.6
 31
0.0
  0
LINE
  8
Layer-0
  6
CONTINUOUS
 62
    15
  5
100
 10
7.2
 20
7.6
 30
0.0
 11
7.2
 21
5.9
 31
0.0
  0
LINE
  8
Layer-0
  6
CONTINUOUS
 62
    15
  5
101
 10
7.2
 20
5.9
 30
0.0
 11
6.9
 21
5.9
 31
0.0
  0
LINE
  8
Layer-0
  6
CONTINUOUS
 62
    15
  5
102
 10
4.8
 20
7.6
 30
0.0
 11
4.8
 21
8.400001
 31
0.0
  0
LINE
  8
Layer-0
  6
CONTINUOUS
 62
    15
  5
103
 10
10.1
 20
8.400001
 30
0.0
 11
5.3
 21
8.400001
 31
0.0
  0
LINE
  8
Layer-0
  6
CONTINUOUS
 62
    15
  5
104
 10
5.1
 20
8.400001
 30
0.0
 11
5.1
 21
8.6
 31
0.0
  0
LINE
  8
Layer-0
  6
CONTINUOUS
 62
    15
  5
105
 10
5.1
 20
8.400001
 30
0.0
 11
5.1
 21
8.200001
 31
0.0
  0
LINE
  8
Layer-0
  6
CONTINUOUS
 62
    15
  5
106
 10
5.3
 20
8.400001
 30
0.0
 11
5.3
 21
8.6
 31
0.0
  0
LINE
  8
Layer-0
  6
CONTINUOUS
 62
    15
  5
107
 10
5.3
 20
8.400001
 30
0.0
 11
5.3
 21
8.200001
 31
0.0
  0
LINE
  8
Layer-0
  6
CONTINUOUS
 62
    15
  5
108
 10
4.8
 20
8.400001
 30
0.0
 11
5.1
 21
8.400001
 31
0.0
  0
LINE
  8
Layer-0
  6
CONTINUOUS
 62
    15
  5
109
 10
10.1
 20
8.0
 30
0.0
 11
9.0
 21
8.0
 31
0.0
  0
LINE
  8
Layer-0
  6
CONTINUOUS
 62
    15
  5
10A
 10
9.0
 20
8.0
 30
0.0
 11
9.0
 21
7.6
 31
0.0
  0
LINE
  8
Layer-0
  6
CONTINUOUS
 62
    15
  5
10B
 10
8.1
 20
7.6
 30
0.0
 11
8.1
 21
7.8
 31
0.0
  0
LINE
  8
Layer-0
  6
CONTINUOUS
 62
    15
  5
10C
 10
8.1
 20
7.6
 30
0.0
 11
8.1
 21
7.4
 31
0.0
  0
LINE
  8
Layer-0
  6
CONTINUOUS
 62
    15
  5
10D
 10
8.299999
 20
7.6
 30
0.0
 11
9.0
 21
7.6
 31
0.0
  0
LINE
  8
Layer-0
  6
CONTINUOUS
 62
    15
  5
10E
 10
8.1
 20
7.6
 30
0.0
 11
7.2
 21
7.6
 31
0.0
  0
LINE
  8
Layer-0
  6
CONTINUOUS
 62
    15
  5
10F
 10
10.8
 20
6.9
 30
0.0
 11
10.8
 21
7.1
 31
0.0
  0
LINE
  8
Layer-0
  6
CONTINUOUS
 62
    15
  5
110
 10
10.8
 20
6.9
 30
0.0
 11
10.8
 21
6.7
 31
0.0
  0
LINE
  8
Layer-0
  6
CONTINUOUS
 62
    15
  5
111
 10
11.0
 20
7.1
 30
0.0
 11
11.0
 21
6.7
 31
0.0
  0
LINE
  8
Layer-0
  6
CONTINUOUS
 62
    15
  5
112
 10
11.0
 20
6.9
 30
0.0
 11
12.1
 21
6.9
 31
0.0
  0
LINE
  8
Layer-0
  6
CONTINUOUS
 62
    15
  5
113
 10
12.1
 20
6.9
 30
0.0
 11
12.1
 21
7.6
 31
0.0
  0
LINE
  8
Layer-0
  6
CONTINUOUS
 62
    15
  5
114
 10
12.1
 20
7.6
 30
0.0
 11
11.7
 21
7.6
 31
0.0
  0
LINE
  8
Layer-0
  6
CONTINUOUS
 62
    15
  5
115
 10
10.1
 20
7.6
 30
0.0
 11
9.7
 21
7.6
 31
0.0
  0
LINE
  8
Layer-0
  6
CONTINUOUS
 62
    15
  5
116
 10
9.7
 20
6.9
 30
0.0
 11
10.8
 21
6.9
 31
0.0
  0
LINE
  8
Layer-0
  6
CONTINUOUS
 62
    15
  5
117
 10
9.7
 20
7.6
 30
0.0
 11
9.7
 21
6.9
 31
0.0
  0
LINE
  8
Layer-0
  6
CONTINUOUS
 62
    15
  5
118
 10
11.7
 20
8.0
 30
0.0
 11
12.3
 21
8.0
 31
0.0
  0
LINE
  8
Layer-0
  6
CONTINUOUS
 62
    15
  5
119
 10
12.3
 20
8.0
 30
0.0
 11
12.3
 21
6.5
 31
0.0
  0
LINE
  8
Layer-0
  6
CONTINUOUS
 62
    15
  5
11A
 10
12.3
 20
6.5
 30
0.0
 11
12.1
 21
6.5
 31
0.0
  0
LINE
  8
Layer-0
  6
CONTINUOUS
 62
    15
  5
11B
 10
12.1
 20
6.3
 30
0.0
 11
12.5
 21
6.3
 31
0.0
  0
LINE
  8
Layer-0
  6
CONTINUOUS
 62
    15
  5
11C
 10
12.5
 20
6.5
 30
0.0
 11
12.3
 21
6.5
 31
0.0
  0
LINE
  8
Layer-0
  6
CONTINUOUS
 62
    15
  5
11D
 10
12.3
 20
6.3
 30
0.0
 11
12.3
 21
5.9
 31
0.0
  0
LINE
  8
Layer-0
  6
CONTINUOUS
 62
    15
  5
11E
 10
12.3
 20
5.9
 30
0.0
 11
12.2
 21
5.9
 31
0.0
  0
LINE
  8
Layer-0
  6
CONTINUOUS
 62
    15
  5
11F
 10
12.2
 20
5.9
 30
0.0
 11
12.3
 21
5.7
 31
0.0
  0
LINE
  8
Layer-0
  6
CONTINUOUS
 62
    15
  5
120
 10
12.3
 20
5.7
 30
0.0
 11
12.400001
 21
5.9
 31
0.0
  0
LINE
  8
Layer-0
  6
CONTINUOUS
 62
    15
  5
121
 10
12.400001
 20
5.9
 30
0.0
 11
12.3
 21
5.9
 31
0.0
  0
LINE
  8
Layer-0
  6
CONTINUOUS
 62
    15
  5
122
 10
11.7
 20
8.400001
 30
0.0
 11
12.8
 21
8.400001
 31
0.0
  0
LINE
  8
Layer-0
  6
CONTINUOUS
 62
    15
  5
123
 10
12.8
 20
8.400001
 30
0.0
 11
12.8
 21
5.1
 31
0.0
  0
LINE
  8
Layer-0
  6
CONTINUOUS
 62
    15
  5
124
 10
12.8
 20
5.1
 30
0.0
 11
12.6
 21
5.1
 31
0.0
  0
LINE
  8
Layer-0
  6
CONTINUOUS
 62
    15
  5
125
 10
11.1
 20
5.1
 30
0.0
 11
11.5
 21
5.1
 31
0.0
  0
ARC
  8
Layer-0
  6
CONTINUOUS
 62
    15
  5
126
 10
11.6
 20
5.1
 30
0.0
 40
0.099999
 50
0.000076
 51
179.999924
  0
ARC
  8
Layer-0
  6
CONTINUOUS
 62
    15
  5
127
 10
11.8
 20
5.1
 30
0.0
 40
0.099999
 50
0.000076
 51
179.999924
  0
ARC
  8
Layer-0
  6
CONTINUOUS
 62
    15
  5
128
 10
12.0
 20
5.1
 30
0.0
 40
0.099999
 50
0.000076
 51
179.999924
  0
ARC
  8
Layer-0
  6
CONTINUOUS
 62
    15
  5
129
 10
12.2
 20
5.1
 30
0.0
 40
0.099999
 50
0.000076
 51
179.999924
  0
ARC
  8
Layer-0
  6
CONTINUOUS
 62
    15
  5
12A
 10
12.4
 20
5.1
 30
0.0
 40
0.099999
 50
0.000076
 51
179.999924
  0
LINE
  8
Layer-0
  6
CONTINUOUS
 62
    15
  5
12B
 10
12.5
 20
5.1
 30
0.0
 11
12.6
 21
5.1
 31
0.0
  0
LINE
  8
Layer-0
  6
CONTINUOUS
 62
    15
  5
12C
 10
11.5
 20
5.3
 30
0.0
 11
12.5
 21
5.3
 31
0.0
  0
LINE
  8
Layer-0
  6
CONTINUOUS
 62
    15
  5
12D
 10
12.8
 20
4.6
 30
0.0
 11
12.6
 21
4.6
 31
0.0
  0
LINE
  8
Layer-0
  6
CONTINUOUS
 62
    15
  5
12E
 10
12.6
 20
4.4
 30
0.0
 11
13.0
 21
4.4
 31
0.0
  0
LINE
  8
Layer-0
  6
CONTINUOUS
 62
    15
  5
12F
 10
13.0
 20
4.6
 30
0.0
 11
12.8
 21
4.6
 31
0.0
  0
LINE
  8
Layer-0
  6
CONTINUOUS
 62
    15
  5
130
 10
12.8
 20
4.4
 30
0.0
 11
12.8
 21
4.0
 31
0.0
  0
LINE
  8
Layer-0
  6
CONTINUOUS
 62
    15
  5
131
 10
12.8
 20
4.0
 30
0.0
 11
12.7
 21
4.0
 31
0.0
  0
LINE
  8
Layer-0
  6
CONTINUOUS
 62
    15
  5
132
 10
12.7
 20
4.0
 30
0.0
 11
12.8
 21
3.8
 31
0.0
  0
LINE
  8
Layer-0
  6
CONTINUOUS
 62
    15
  5
133
 10
12.8
 20
3.8
 30
0.0
 11
12.900001
 21
4.0
 31
0.0
  0
LINE
  8
Layer-0
  6
CONTINUOUS
 62
    15
  5
134
 10
12.900001
 20
4.0
 30
0.0
 11
12.8
 21
4.0
 31
0.0
  0
LINE
  8
Layer-0
  6
CONTINUOUS
 62
    15
  5
135
 10
12.8
 20
4.6
 30
0.0
 11
12.8
 21
5.1
 31
0.0
  0
LINE
  8
Layer-0
  6
CONTINUOUS
 62
    15
  5
136
 10
10.1
 20
8.8
 30
0.0
 11
9.7
 21
8.8
 31
0.0
  0
LINE
  8
Layer-0
  6
CONTINUOUS
 62
    15
  5
137
 10
9.0
 20
8.9
 30
0.0
 11
8.9
 21
8.9
 31
0.0
  0
LINE
  8
Layer-0
  6
CONTINUOUS
 62
    15
  5
138
 10
8.9
 20
8.9
 30
0.0
 11
9.0
 21
8.7
 31
0.0
  0
LINE
  8
Layer-0
  6
CONTINUOUS
 62
    15
  5
139
 10
9.0
 20
8.7
 30
0.0
 11
9.1
 21
8.9
 31
0.0
  0
LINE
  8
Layer-0
  6
CONTINUOUS
 62
    15
  5
13A
 10
9.1
 20
8.9
 30
0.0
 11
9.0
 21
8.9
 31
0.0
  0
LINE
  8
Layer-0
  6
CONTINUOUS
 62
    15
  5
13B
 10
9.0
 20
8.900001
 30
0.0
 11
9.0
 21
9.2
 31
0.0
  0
LINE
  8
Layer-0
  6
CONTINUOUS
 62
    15
  5
13C
 10
9.0
 20
9.2
 30
0.0
 11
9.7
 21
9.2
 31
0.0
  0
LINE
  8
Layer-0
  6
CONTINUOUS
 62
    15
  5
13D
 10
9.7
 20
9.2
 30
0.0
 11
9.7
 21
8.8
 31
0.0
  0
LINE
  8
Layer-0
  6
CONTINUOUS
 62
    15
  5
13E
 10
10.1
 20
7.3
 30
0.0
 11
10.1
 21
9.199999
 31
0.0
  0
LINE
  8
Layer-0
  6
CONTINUOUS
 62
    15
  5
13F
 10
11.7
 20
9.199999
 30
0.0
 11
11.7
 21
7.3
 31
0.0
  0
LINE
  8
Layer-0
  6
CONTINUOUS
 62
    15
  5
140
 10
10.1
 20
9.199999
 30
0.0
 11
11.7
 21
9.199999
 31
0.0
  0
TEXT
  8
Layer-0
  6
CONTINUOUS
 62
    11
  5
141
 10
10.3
 20
9.3
 30
0.0
 40
0.2
  1
LM386
  7
VC-TEXTSTYLE0
  0
LINE
  8
Layer-0
  6
CONTINUOUS
 62
    15
  5
142
 10
9.7
 20
9.799999
 30
0.0
 11
9.5
 21
9.799999
 31
0.0
  0
LINE
  8
Layer-0
  6
CONTINUOUS
 62
    15
  5
143
 10
9.5
 20
9.6
 30
0.0
 11
9.9
 21
9.6
 31
0.0
  0
LINE
  8
Layer-0
  6
CONTINUOUS
 62
    15
  5
144
 10
9.9
 20
9.799999
 30
0.0
 11
9.7
 21
9.799999
 31
0.0
  0
LINE
  8
Layer-0
  6
CONTINUOUS
 62
    15
  5
145
 10
9.7
 20
9.6
 30
0.0
 11
9.7
 21
9.2
 31
0.0
  0
LINE
  8
Layer-0
  6
CONTINUOUS
 62
    15
  5
146
 10
9.7
 20
9.2
 30
0.0
 11
9.599999
 21
9.2
 31
0.0
  0
LINE
  8
Layer-0
  6
CONTINUOUS
 62
    15
  5
147
 10
9.7
 20
9.8
 30
0.0
 11
9.7
 21
10.2
 31
0.0
  0
LINE
  8
Layer-0
  6
CONTINUOUS
 62
    15
  5
148
 10
11.7
 20
8.8
 30
0.0
 11
12.1
 21
8.8
 31
0.0
  0
LINE
  8
Layer-0
  6
CONTINUOUS
 62
    15
  5
149
 10
12.1
 20
8.8
 30
0.0
 11
12.1
 21
10.2
 31
0.0
  0
LINE
  8
Layer-0
  6
CONTINUOUS
 62
    15
  5
14A
 10
10.499999
 20
10.2
 30
0.0
 11
10.599999
 21
10.1
 31
0.0
  0
LINE
  8
Layer-0
  6
CONTINUOUS
 62
    15
  5
14B
 10
10.599999
 20
10.1
 30
0.0
 11
10.699999
 21
10.299999
 31
0.0
  0
LINE
  8
Layer-0
  6
CONTINUOUS
 62
    15
  5
14C
 10
10.699999
 20
10.299999
 30
0.0
 11
10.9
 21
10.1
 31
0.0
  0
LINE
  8
Layer-0
  6
CONTINUOUS
 62
    15
  5
14D
 10
10.9
 20
10.1
 30
0.0
 11
10.999999
 21
10.299999
 31
0.0
  0
LINE
  8
Layer-0
  6
CONTINUOUS
 62
    15
  5
14E
 10
10.999999
 20
10.299999
 30
0.0
 11
11.199999
 21
10.1
 31
0.0
  0
LINE
  8
Layer-0
  6
CONTINUOUS
 62
    15
  5
14F
 10
11.199999
 20
10.1
 30
0.0
 11
11.299999
 21
10.299999
 31
0.0
  0
LINE
  8
Layer-0
  6
CONTINUOUS
 62
    15
  5
150
 10
11.299999
 20
10.299999
 30
0.0
 11
11.4
 21
10.2
 31
0.0
  0
LINE
  8
Layer-0
  6
CONTINUOUS
 62
    15
  5
151
 10
11.4
 20
10.2
 30
0.0
 11
11.6
 21
10.2
 31
0.0
  0
LINE
  8
Layer-0
  6
CONTINUOUS
 62
    15
  5
152
 10
10.5
 20
10.2
 30
0.0
 11
9.7
 21
10.2
 31
0.0
  0
LINE
  8
Layer-0
  6
CONTINUOUS
 62
    15
  5
153
 10
12.1
 20
10.2
 30
0.0
 11
11.599999
 21
10.2
 31
0.0
  0
LINE
  8
Layer-0
  6
CONTINUOUS
 62
    15
  5
154
 10
11.5
 20
8.8
 30
0.0
 11
11.150001
 21
8.8
 31
0.0
  0
LINE
  8
Layer-0
  6
CONTINUOUS
 62
    15
  5
155
 10
10.3
 20
8.400001
 30
0.0
 11
10.5
 21
8.400001
 31
0.0
  0
LINE
  8
Layer-0
  6
CONTINUOUS
 62
    15
  5
156
 10
10.3
 20
8.0
 30
0.0
 11
10.5
 21
8.0
 31
0.0
  0
LINE
  8
Layer-0
  6
CONTINUOUS
 62
    15
  5
157
 10
10.5
 20
8.5
 30
0.0
 11
10.5
 21
7.9
 31
0.0
  0
LINE
  8
Layer-0
  6
CONTINUOUS
 62
    15
  5
158
 10
10.5
 20
7.9
 30
0.0
 11
11.0
 21
8.2
 31
0.0
  0
LINE
  8
Layer-0
  6
CONTINUOUS
 62
    15
  5
159
 10
11.0
 20
8.2
 30
0.0
 11
10.5
 21
8.5
 31
0.0
  0
LINE
  8
Layer-0
  6
CONTINUOUS
 62
    15
  5
15A
 10
11.150001
 20
8.8
 30
0.0
 11
11.150001
 21
8.2
 31
0.0
  0
LINE
  8
Layer-0
  6
CONTINUOUS
 62
    15
  5
15B
 10
11.150001
 20
8.2
 30
0.0
 11
11.0
 21
8.2
 31
0.0
  0
TEXT
  8
Layer-0
  6
CONTINUOUS
 62
    11
  5
15C
 10
10.55
 20
8.05
 30
0.0
 40
0.1
  1
-
  7
VC-TEXTSTYLE0
  0
TEXT
  8
Layer-0
  6
CONTINUOUS
 62
    11
  5
15D
 10
10.55
 20
8.3
 30
0.0
 40
0.1
  1
+
  7
VC-TEXTSTYLE0
  0
LINE
  8
Layer-0
  6
CONTINUOUS
 62
    15
  5
15E
 10
10.3
 20
8.8
 30
0.0
 11
10.75
 21
8.8
 31
0.0
  0
LINE
  8
Layer-0
  6
CONTINUOUS
 62
    15
  5
15F
 10
10.75
 20
8.8
 30
0.0
 11
10.75
 21
8.35
 31
0.0
  0
LINE
  8
Layer-0
  6
CONTINUOUS
 62
    15
  5
160
 10
10.75
 20
8.05
 30
0.0
 11
10.75
 21
7.8
 31
0.0
  0
LINE
  8
Layer-0
  6
CONTINUOUS
 62
    15
  5
161
 10
10.75
 20
7.8
 30
0.0
 11
11.3
 21
7.8
 31
0.0
  0
LINE
  8
Layer-0
  6
CONTINUOUS
 62
    15
  5
162
 10
11.3
 20
7.8
 30
0.0
 11
11.3
 21
8.400001
 31
0.0
  0
LINE
  8
Layer-0
  6
CONTINUOUS
 62
    15
  5
163
 10
11.3
 20
8.400001
 30
0.0
 11
11.5
 21
8.400001
 31
0.0
  0
LINE
  8
Layer-0
  6
CONTINUOUS
 62
    15
  5
164
 10
10.35
 20
7.55
 30
0.0
 11
10.45
 21
7.45
 31
0.0
  0
LINE
  8
Layer-0
  6
CONTINUOUS
 62
    15
  5
165
 10
11.5
 20
7.55
 30
0.0
 11
11.400001
 21
7.45
 31
0.0
  0
TEXT
  8
Layer-0
  6
CONTINUOUS
 62
    11
  5
166
 10
10.7
 20
7.4
 30
0.0
 40
0.1
  1
GAIN
  7
VC-TEXTSTYLE0
  0
TEXT
  8
Layer-0
  6
CONTINUOUS
 62
    11
  5
167
 10
10.85
 20
7.85
 30
0.0
 40
0.1
  1
+V
  7
VC-TEXTSTYLE0
  0
LINE
  8
Layer-0
  6
CONTINUOUS
 62
    15
  5
168
 10
5.4
 20
2.0
 30
0.0
 11
4.8
 21
2.0
 31
0.0
  0
CIRCLE
  8
Layer-0
  6
CONTINUOUS
 62
    15
  5
169
 10
4.8
 20
2.0
 30
0.0
 40
0.05
  0
CIRCLE
  8
Layer-0
  6
CONTINUOUS
 62
    15
  5
16A
 10
4.2
 20
2.0
 30
0.0
 40
0.05
  0
LINE
  8
Layer-0
  6
CONTINUOUS
 62
    15
  5
16B
 10
4.2
 20
2.0
 30
0.0
 11
4.8
 21
2.3
 31
0.0
  0
LINE
  8
Layer-0
  6
CONTINUOUS
 62
    15
  5
16C
 10
4.2
 20
2.0
 30
0.0
 11
3.6
 21
2.0
 31
0.0
  0
LINE
  8
Layer-0
  6
CONTINUOUS
 62
    15
  5
16D
 10
3.6
 20
2.0
 30
0.0
 11
3.6
 21
1.8
 31
0.0
  0
LINE
  8
Layer-0
  6
CONTINUOUS
 62
    15
  5
16E
 10
3.5
 20
2.1
 30
0.0
 11
3.5
 21
1.9
 31
0.0
  0
LINE
  8
Layer-0
  6
CONTINUOUS
 62
    15
  5
16F
 10
3.5
 20
2.0
 30
0.0
 11
3.3
 21
2.0
 31
0.0
  0
LINE
  8
Layer-0
  6
CONTINUOUS
 62
    15
  5
170
 10
3.3
 20
2.0
 30
0.0
 11
3.3
 21
1.8
 31
0.0
  0
LINE
  8
Layer-0
  6
CONTINUOUS
 62
    15
  5
171
 10
3.2
 20
2.1
 30
0.0
 11
3.2
 21
1.9
 31
0.0
  0
LINE
  8
Layer-0
  6
CONTINUOUS
 62
    15
  5
172
 10
3.2
 20
2.0
 30
0.0
 11
3.0
 21
2.0
 31
0.0
  0
LINE
  8
Layer-0
  6
CONTINUOUS
 62
    15
  5
173
 10
3.0
 20
2.0
 30
0.0
 11
3.0
 21
1.8
 31
0.0
  0
LINE
  8
Layer-0
  6
CONTINUOUS
 62
    15
  5
174
 10
2.9
 20
2.1
 30
0.0
 11
2.9
 21
1.9
 31
0.0
  0
LINE
  8
Layer-0
  6
CONTINUOUS
 62
    15
  5
175
 10
2.9
 20
2.0
 30
0.0
 11
2.7
 21
2.0
 31
0.0
  0
LINE
  8
Layer-0
  6
CONTINUOUS
 62
    15
  5
176
 10
2.7
 20
2.0
 30
0.0
 11
2.7
 21
1.8
 31
0.0
  0
LINE
  8
Layer-0
  6
CONTINUOUS
 62
    15
  5
177
 10
2.599999
 20
2.1
 30
0.0
 11
2.599999
 21
1.9
 31
0.0
  0
LINE
  8
Layer-0
  6
CONTINUOUS
 62
    15
  5
178
 10
2.599999
 20
2.0
 30
0.0
 11
2.399999
 21
2.0
 31
0.0
  0
LINE
  8
Layer-0
  6
CONTINUOUS
 62
    15
  5
179
 10
2.4
 20
2.0
 30
0.0
 11
2.4
 21
1.2
 31
0.0
  0
LINE
  8
Layer-0
  6
CONTINUOUS
 62
    15
  5
17A
 10
2.4
 20
1.2
 30
0.0
 11
2.3
 21
1.2
 31
0.0
  0
LINE
  8
Layer-0
  6
CONTINUOUS
 62
    15
  5
17B
 10
2.3
 20
1.2
 30
0.0
 11
2.4
 21
1.0
 31
0.0
  0
LINE
  8
Layer-0
  6
CONTINUOUS
 62
    15
  5
17C
 10
2.4
 20
1.2
 30
0.0
 11
2.5
 21
1.2
 31
0.0
  0
LINE
  8
Layer-0
  6
CONTINUOUS
 62
    15
  5
17D
 10
2.7
 20
1.8
 30
0.0
 11
2.7
 21
1.8
 31
0.0
  0
LINE
  8
Layer-0
  6
CONTINUOUS
 62
    15
  5
17E
 10
3.0
 20
1.8
 30
0.0
 11
3.0
 21
1.8
 31
0.0
  0
LINE
  8
Layer-0
  6
CONTINUOUS
 62
    15
  5
17F
 10
3.3
 20
1.8
 30
0.0
 11
3.3
 21
1.8
 31
0.0
  0
LINE
  8
Layer-0
  6
CONTINUOUS
 62
    15
  5
180
 10
3.6
 20
1.8
 30
0.0
 11
3.6
 21
1.8
 31
0.0
  0
LINE
  8
Layer-0
  6
CONTINUOUS
 62
    15
  5
181
 10
3.6
 20
2.0
 30
0.0
 11
3.6
 21
2.2
 31
0.0
  0
LINE
  8
Layer-0
  6
CONTINUOUS
 62
    15
  5
182
 10
3.3
 20
2.0
 30
0.0
 11
3.3
 21
2.2
 31
0.0
  0
LINE
  8
Layer-0
  6
CONTINUOUS
 62
    15
  5
183
 10
3.0
 20
2.0
 30
0.0
 11
3.0
 21
2.2
 31
0.0
  0
LINE
  8
Layer-0
  6
CONTINUOUS
 62
    15
  5
184
 10
2.7
 20
2.0
 30
0.0
 11
2.7
 21
2.2
 31
0.0
  0
CIRCLE
  8
Layer-0
  6
CONTINUOUS
 62
    15
  5
185
 10
14.200001
 20
8.8
 30
0.0
 40
0.05
  0
CIRCLE
  8
Layer-0
  6
CONTINUOUS
 62
    15
  5
186
 10
14.200001
 20
8.8
 30
0.0
 40
0.2
  0
LINE
  8
Layer-0
  6
CONTINUOUS
 62
    15
  5
187
 10
14.000001
 20
8.8
 30
0.0
 11
14.200001
 21
8.8
 31
0.0
  0
LINE
  8
Layer-0
  6
CONTINUOUS
 62
    15
  5
188
 10
14.200001
 20
8.6
 30
0.0
 11
14.200001
 21
8.3
 31
0.0
  0
LINE
  8
Layer-0
  6
CONTINUOUS
 62
    15
  5
189
 10
14.200001
 20
8.3
 30
0.0
 11
14.1
 21
8.3
 31
0.0
  0
LINE
  8
Layer-0
  6
CONTINUOUS
 62
    15
  5
18A
 10
14.1
 20
8.3
 30
0.0
 11
14.200001
 21
8.1
 31
0.0
  0
LINE
  8
Layer-0
  6
CONTINUOUS
 62
    15
  5
18B
 10
14.200001
 20
8.1
 30
0.0
 11
14.300001
 21
8.3
 31
0.0
  0
LINE
  8
Layer-0
  6
CONTINUOUS
 62
    15
  5
18C
 10
14.300001
 20
8.3
 30
0.0
 11
14.200001
 21
8.3
 31
0.0
  0
LINE
  8
Layer-0
  6
CONTINUOUS
 62
    15
  5
18D
 10
14.000001
 20
8.8
 30
0.0
 11
13.600001
 21
8.8
 31
0.0
  0
LINE
  8
Layer-0
  6
CONTINUOUS
 62
    15
  5
18E
 10
13.100001
 20
8.8
 30
0.0
 11
13.100001
 21
9.0
 31
0.0
  0
LINE
  8
Layer-0
  6
CONTINUOUS
 62
    15
  5
18F
 10
13.100001
 20
8.8
 30
0.0
 11
13.100001
 21
8.6
 31
0.0
  0
LINE
  8
Layer-0
  6
CONTINUOUS
 62
    15
  5
190
 10
13.3
 20
8.8
 30
0.0
 11
13.3
 21
9.0
 31
0.0
  0
LINE
  8
Layer-0
  6
CONTINUOUS
 62
    15
  5
191
 10
13.3
 20
8.8
 30
0.0
 11
13.3
 21
8.6
 31
0.0
  0
LINE
  8
Layer-0
  6
CONTINUOUS
 62
    15
  5
192
 10
13.3
 20
8.8
 30
0.0
 11
14.000001
 21
8.8
 31
0.0
  0
LINE
  8
Layer-0
  6
CONTINUOUS
 62
    15
  5
193
 10
12.1
 20
8.8
 30
0.0
 11
13.100001
 21
8.8
 31
0.0
  0
TEXT
  8
Layer-0
  6
CONTINUOUS
 62
    11
  5
194
 10
2.9
 20
4.1
 30
0.0
 40
0.1
  1
C1
  7
VC-TEXTSTYLE0
  0
TEXT
  8
Layer-0
  6
CONTINUOUS
 62
    11
  5
195
 10
2.6
 20
3.65
 30
0.0
 40
0.1
  1
4.5 - 
  7
VC-TEXTSTYLE0
  0
LINE
  8
Layer-0
  6
CONTINUOUS
 62
    15
  5
196
 10
2.225
 20
5.2
 30
0.0
 11
2.225
 21
3.8
 31
0.0
  0
LINE
  8
Layer-0
  6
CONTINUOUS
 62
    15
  5
197
 10
2.175
 20
5.2
 30
0.0
 11
2.175
 21
3.8
 31
0.0
  0
TEXT
  8
Layer-0
  6
CONTINUOUS
 62
    11
  5
198
 10
2.6
 20
3.45
 30
0.0
 40
0.1
  1
65 pf
  7
VC-TEXTSTYLE0
  0
TEXT
  8
Layer-0
  6
CONTINUOUS
 62
    11
  5
199
 10
1.9
 20
3.95
 30
0.0
 40
0.1
  1
L1
  7
VC-TEXTSTYLE0
  0
TEXT
  8
Layer-0
  6
CONTINUOUS
 62
    11
  5
19A
 10
1.3
 20
3.65
 30
0.0
 40
0.1
  1
(see text)
  7
VC-TEXTSTYLE0
  0
TEXT
  8
Layer-0
  6
CONTINUOUS
 62
    11
  5
19B
 10
1.7
 20
4.8
 30
0.0
 40
0.1
  1
5t
  7
VC-TEXTSTYLE0
  0
TEXT
  8
Layer-0
  6
CONTINUOUS
 62
    11
  5
19C
 10
2.4
 20
4.05
 30
0.0
 40
0.1
  1
30t
  7
VC-TEXTSTYLE0
  0
TEXT
  8
Layer-0
  6
CONTINUOUS
 62
    11
  5
19D
 10
4.5
 20
3.7
 30
0.0
 40
0.1
  1
0.1
  7
VC-TEXTSTYLE0
  0
TEXT
  8
Layer-0
  6
CONTINUOUS
 62
    11
  5
19E
 10
2.0
 20
5.8
 30
0.0
 40
0.1
  1
0.001
  7
VC-TEXTSTYLE0
  0
TEXT
  8
Layer-0
  6
CONTINUOUS
 62
    11
  5
19F
 10
5.800001
 20
6.100001
 30
0.0
 40
0.1
  1
R6
  7
VC-TEXTSTYLE0
  0
TEXT
  8
Layer-0
  6
CONTINUOUS
 62
    11
  5
1A0
 10
6.3
 20
6.100001
 30
0.0
 40
0.1
  1
2.7K
  7
VC-TEXTSTYLE0
  0
TEXT
  8
Layer-0
  6
CONTINUOUS
 62
    11
  5
1A1
 10
2.500004
 20
2.499999
 30
0.0
 40
0.1
  1
4 x 1.5 V cell
  7
VC-TEXTSTYLE0
  0
TEXT
  8
Layer-0
  6
CONTINUOUS
 62
    11
  5
1A2
 10
3.5
 20
7.8
 30
0.0
 40
0.1
  1
R5  2.7K
  7
VC-TEXTSTYLE0
  0
TEXT
  8
Layer-0
  6
CONTINUOUS
 62
    11
  5
1A3
 10
5.4
 20
8.5
 30
0.0
 40
0.1
  1
C12
  7
VC-TEXTSTYLE0
  0
TEXT
  8
Layer-0
  6
CONTINUOUS
 62
    11
  5
1A4
 10
5.4
 20
8.200001
 30
0.0
 40
0.1
  1
1.0 uf.
  7
VC-TEXTSTYLE0
  0
LINE
  8
Layer-0
  6
CONTINUOUS
 62
    15
  5
1A5
 10
8.3
 20
7.6
 30
0.0
 11
8.3
 21
7.8
 31
0.0
  0
LINE
  8
Layer-0
  6
CONTINUOUS
 62
    15
  5
1A6
 10
8.3
 20
7.8
 30
0.0
 11
8.3
 21
7.6
 31
0.0
  0
LINE
  8
Layer-0
  6
CONTINUOUS
 62
    15
  5
1A7
 10
8.3
 20
7.6
 30
0.0
 11
8.3
 21
7.4
 31
0.0
  0
TEXT
  8
Layer-0
  6
CONTINUOUS
 62
    11
  5
1A8
 10
5.4
 20
7.7
 30
0.0
 40
0.1
  1
C10
  7
VC-TEXTSTYLE0
  0
TEXT
  8
Layer-0
  6
CONTINUOUS
 62
    11
  5
1A9
 10
5.4
 20
7.4
 30
0.0
 40
0.1
  1
0.1
  7
VC-TEXTSTYLE0
  0
TEXT
  8
Layer-0
  6
CONTINUOUS
 62
    11
  5
1AA
 10
6.599999
 20
7.7
 30
0.0
 40
0.1
  1
C11
  7
VC-TEXTSTYLE0
  0
TEXT
  8
Layer-0
  6
CONTINUOUS
 62
    11
  5
1AB
 10
6.599999
 20
7.4
 30
0.0
 40
0.1
  1
0.1
  7
VC-TEXTSTYLE0
  0
TEXT
  8
Layer-0
  6
CONTINUOUS
 62
    11
  5
1AC
 10
8.399999
 20
7.7
 30
0.0
 40
0.1
  1
C13
  7
VC-TEXTSTYLE0
  0
TEXT
  8
Layer-0
  6
CONTINUOUS
 62
    11
  5
1AD
 10
8.399999
 20
7.4
 30
0.0
 40
0.1
  1
1.0 uf
  7
VC-TEXTSTYLE0
  0
TEXT
  8
Layer-0
  6
CONTINUOUS
 62
    11
  5
1AE
 10
11.100002
 20
7.0
 30
0.0
 40
0.1
  1
C14
  7
VC-TEXTSTYLE0
  0
TEXT
  8
Layer-0
  6
CONTINUOUS
 62
    11
  5
1AF
 10
11.100002
 20
6.7
 30
0.0
 40
0.1
  1
10 uf.
  7
VC-TEXTSTYLE0
  0
TEXT
  8
Layer-0
  6
CONTINUOUS
 62
    11
  5
1B0
 10
12.400007
 20
6.099999
 30
0.0
 40
0.1
  1
0.1
  7
VC-TEXTSTYLE0
  0
TEXT
  8
Layer-0
  6
CONTINUOUS
 62
    11
  5
1B1
 10
9.799997
 20
9.399997
 30
0.0
 40
0.1
  1
0.1
  7
VC-TEXTSTYLE0
  0
TEXT
  8
Layer-0
  6
CONTINUOUS
 62
    11
  5
1B2
 10
12.900001
 20
8.900001
 30
0.0
 40
0.1
  1
+
  7
VC-TEXTSTYLE0
  0
TEXT
  8
Layer-0
  6
CONTINUOUS
 62
    11
  5
1B3
 10
13.400002
 20
8.600001
 30
0.0
 40
0.1
  1
220 
  7
VC-TEXTSTYLE0
  0
TEXT
  8
Layer-0
  6
CONTINUOUS
 62
    11
  5
1B4
 10
13.400002
 20
8.450002
 30
0.0
 40
0.1
  1
uf.
  7
VC-TEXTSTYLE0
  0
TEXT
  8
Layer-0
  6
CONTINUOUS
 62
    11
  5
1B5
 10
13.700004
 20
9.2
 30
0.0
 40
0.1
  1
Audio Out
  7
VC-TEXTSTYLE0
  0
TEXT
  8
Layer-0
  6
CONTINUOUS
 62
    11
  5
1B6
 10
10.599992
 20
9.949998
 30
0.0
 40
0.1
  1
R7   10
  7
VC-TEXTSTYLE0
  0
TEXT
  8
Layer-0
  6
CONTINUOUS
 62
    11
  5
1B7
 10
11.500001
 20
4.9
 30
0.0
 40
0.1
  1
L3  100 uh.
  7
VC-TEXTSTYLE0
  0
TEXT
  8
Layer-0
  6
CONTINUOUS
 62
    11
  5
1B8
 10
12.900001
 20
4.2
 30
0.0
 40
0.1
  1
0.1
  7
VC-TEXTSTYLE0
  0
TEXT
  8
Layer-0
  6
CONTINUOUS
 62
    11
  5
1B9
 10
11.400001
 20
4.4
 30
0.0
 40
0.1
  1
150
  7
VC-TEXTSTYLE0
  0
TEXT
  8
Layer-0
  6
CONTINUOUS
 62
    11
  5
1BA
 10
12.0
 20
3.6
 30
0.0
 40
0.1
  1
0.1
  7
VC-TEXTSTYLE0
  0
LINE
  8
Layer-0
  6
CONTINUOUS
 62
    15
  5
1BB
 10
10.8
 20
2.9
 30
0.0
 11
10.8
 21
3.1
 31
0.0
  0
LINE
  8
Layer-0
  6
CONTINUOUS
 62
    15
  5
1BC
 10
10.8
 20
2.3
 30
0.0
 11
10.8
 21
2.1
 31
0.0
  0
LINE
  8
Layer-0
  6
CONTINUOUS
 62
    15
  5
1BD
 10
10.8
 20
2.3
 30
0.0
 11
11.2
 21
2.3
 31
0.0
  0
LINE
  8
Layer-0
  6
CONTINUOUS
 62
    15
  5
1BE
 10
10.8
 20
2.9
 30
0.0
 11
11.2
 21
2.9
 31
0.0
  0
LINE
  8
Layer-0
  6
CONTINUOUS
 62
    15
  5
1BF
 10
11.2
 20
2.9
 30
0.0
 11
11.2
 21
3.3
 31
0.0
  0
LINE
  8
Layer-0
  6
CONTINUOUS
 62
    15
  5
1C0
 10
11.2
 20
2.3
 30
0.0
 11
11.2
 21
2.0
 31
0.0
  0
TEXT
  8
Layer-0
  6
CONTINUOUS
 62
    11
  5
1C1
 10
10.5
 20
3.2
 30
0.0
 40
0.1
  1
Q1
  7
VC-TEXTSTYLE0
  0
TEXT
  8
Layer-0
  6
CONTINUOUS
 62
    11
  5
1C2
 10
11.400003
 20
2.75
 30
0.0
 40
0.1
  1
2N3819
  7
VC-TEXTSTYLE0
  0
TEXT
  8
Layer-0
  6
CONTINUOUS
 62
    11
  5
1C3
 10
11.100002
 20
2.6
 30
0.0
 40
0.1
  1
or MPF102
  7
VC-TEXTSTYLE0
  0
TEXT
  8
Layer-0
  6
CONTINUOUS
 62
    11
  5
1C4
 10
12.0
 20
1.8
 30
0.0
 40
0.1
  1
220
  7
VC-TEXTSTYLE0
  0
TEXT
  8
Layer-0
  6
CONTINUOUS
 62
    11
  5
1C5
 10
12.0
 20
1.65
 30
0.0
 40
0.1
  1
pf.
  7
VC-TEXTSTYLE0
  0
TEXT
  8
Layer-0
  6
CONTINUOUS
 62
    11
  5
1C6
 10
11.400001
 20
1.3
 30
0.0
 40
0.1
  1
R4
  7
VC-TEXTSTYLE0
  0
TEXT
  8
Layer-0
  6
CONTINUOUS
 62
    11
  5
1C7
 10
11.400001
 20
1.0
 30
0.0
 40
0.1
  1
150
  7
VC-TEXTSTYLE0
  0
TEXT
  8
Layer-0
  6
CONTINUOUS
 62
    11
  5
1C8
 10
6.3
 20
3.5
 30
0.0
 40
0.1
  1
C3
  7
VC-TEXTSTYLE0
  0
TEXT
  8
Layer-0
  6
CONTINUOUS
 62
    11
  5
1C9
 10
5.6
 20
4.3
 30
0.0
 40
0.1
  1
C5
  7
VC-TEXTSTYLE0
  0
TEXT
  8
Layer-0
  6
CONTINUOUS
 62
    11
  5
1CA
 10
6.0
 20
3.85
 30
0.0
 40
0.1
  1
100
  7
VC-TEXTSTYLE0
  0
TEXT
  8
Layer-0
  6
CONTINUOUS
 62
    11
  5
1CB
 10
6.3
 20
5.200001
 30
0.0
 40
0.1
  1
C4
  7
VC-TEXTSTYLE0
  0
TEXT
  8
Layer-0
  6
CONTINUOUS
 62
    11
  5
1CC
 10
6.7
 20
4.75
 30
0.0
 40
0.1
  1
100
  7
VC-TEXTSTYLE0
  0
TEXT
  8
Layer-0
  6
CONTINUOUS
 62
    11
  5
1CD
 10
4.2
 20
1.6
 30
0.0
 40
0.1
  1
Power
  7
VC-TEXTSTYLE0
  0
TEXT
  8
Layer-0
  6
CONTINUOUS
 62
    11
  5
1CE
 10
0.8
 20
5.2
 30
0.0
 40
0.1
  1
Antenna
  7
VC-TEXTSTYLE0
  0
LINE
  8
Layer-0
  6
CONTINUOUS
 62
    15
  5
1CF
 10
2.4
 20
1.0
 30
0.0
 11
2.5
 21
1.2
 31
0.0
  0
TEXT
  8
Layer-0
  6
CONTINUOUS
 62
    11
  5
1D0
 10
1.2
 20
9.8
 30
0.0
 40
0.25
  1
Standard Frequency
  7
VC-TEXTSTYLE0
  0
TEXT
  8
Layer-0
  6
CONTINUOUS
 62
    11
  5
1D1
 10
1.2
 20
9.425
 30
0.0
 40
0.25
  1
Receiver / Calibrator
  7
VC-TEXTSTYLE0
  0
TEXT
  8
Layer-0
  6
CONTINUOUS
 62
    11
  5
1D2
 10
1.2
 20
8.8
 30
0.0
 40
0.1
  1
Notes:
  7
VC-TEXTSTYLE0
  0
TEXT
  8
Layer-0
  6
CONTINUOUS
 62
    11
  5
1D3
 10
1.9
 20
8.650001
 30
0.0
 40
0.1
  1
All resistors 5% 1/4 W
  7
VC-TEXTSTYLE0
  0
TEXT
  8
Layer-0
  6
CONTINUOUS
 62
    11
  5
1D4
 10
4.299998
 20
8.500001
 30
0.0
 40
0.1
  1
 
  7
VC-TEXTSTYLE0
  0
TEXT
  8
Layer-0
  6
CONTINUOUS
 62
    11
  5
1D5
 10
1.2
 20
8.350001
 30
0.0
 40
0.1
  1
          
  7
VC-TEXTSTYLE0
  0
TEXT
  8
Layer-0
  6
CONTINUOUS
 62
    11
  5
1D6
 10
1.2
 20
8.200002
 30
0.0
 40
0.1
  1
       
  7
VC-TEXTSTYLE0
  0
TEXT
  8
Layer-0
  6
CONTINUOUS
 62
    11
  5
1D7
 10
1.9
 20
8.500001
 30
0.0
 40
0.1
  1
L-2 optional. If not used
  7
VC-TEXTSTYLE0
  0
TEXT
  8
Layer-0
  6
CONTINUOUS
 62
    11
  5
1D8
 10
2.1
 20
8.350001
 30
0.0
 40
0.1
  1
replace with jumper.
  7
VC-TEXTSTYLE0
  0
TEXT
  8
Layer-0
  6
CONTINUOUS
 62
    11
  5
1D9
 10
1.9
 20
8.200002
 30
0.0
 40
0.1
  1
IC Pinouts are bottom view
  7
VC-TEXTSTYLE0
  0
TEXT
  8
Layer-0
  6
CONTINUOUS
 62
    11
  5
1DA
 10
2.0
 20
5.65
 30
0.0
 40
0.1
  1
uf.
  7
VC-TEXTSTYLE0
  0
TEXT
  8
Layer-0
  6
CONTINUOUS
 62
    11
  5
1DB
 10
4.799997
 20
3.699999
 30
0.0
 40
0.1
  1
 uf
  7
VC-TEXTSTYLE0
  0
TEXT
  8
Layer-0
  6
CONTINUOUS
 62
    11
  5
1DC
 10
5.999996
 20
3.699999
 30
0.0
 40
0.1
  1
pf
  7
VC-TEXTSTYLE0
  0
TEXT
  8
Layer-0
  6
CONTINUOUS
 62
    11
  5
1DD
 10
6.699996
 20
4.599999
 30
0.0
 40
0.1
  1
pf
  7
VC-TEXTSTYLE0
  0
TEXT
  8
Layer-0
  6
CONTINUOUS
 62
    11
  5
1DE
 10
6.799995
 20
2.949998
 30
0.0
 40
0.1
  1
pf
  7
VC-TEXTSTYLE0
  0
TEXT
  8
Layer-0
  6
CONTINUOUS
 62
    11
  5
1DF
 10
5.4
 20
7.25
 30
0.0
 40
0.1
  1
uf
  7
VC-TEXTSTYLE0
  0
TEXT
  8
Layer-0
  6
CONTINUOUS
 62
    11
  5
1E0
 10
6.599999
 20
7.25
 30
0.0
 40
0.1
  1
uf
  7
VC-TEXTSTYLE0
  0
TEXT
  8
Layer-0
  6
CONTINUOUS
 62
    11
  5
1E1
 10
9.799997
 20
9.249997
 30
0.0
 40
0.1
  1
uf
  7
VC-TEXTSTYLE0
  0
TEXT
  8
Layer-0
  6
CONTINUOUS
 62
    11
  5
1E2
 10
12.500008
 20
5.949999
 30
0.0
 40
0.1
  1
uf
  7
VC-TEXTSTYLE0
  0
TEXT
  8
Layer-0
  6
CONTINUOUS
 62
    11
  5
1E3
 10
12.900001
 20
4.05
 30
0.0
 40
0.1
  1
uf.
  7
VC-TEXTSTYLE0
  0
TEXT
  8
Layer-0
  6
CONTINUOUS
 62
    11
  5
1E4
 10
12.399999
 20
3.6
 30
0.0
 40
0.1
  1
uf.
  7
VC-TEXTSTYLE0
  0
TEXT
  8
Layer-0
  6
CONTINUOUS
 62
    11
  5
1E5
 10
12.6
 20
2.4
 30
0.0
 40
0.1
  1
reference 
  7
VC-TEXTSTYLE0
  0
TEXT
  8
Layer-0
  6
CONTINUOUS
 62
    11
  5
1E6
 10
13.200003
 20
2.25
 30
0.0
 40
0.1
  1
out
  7
VC-TEXTSTYLE0
  0
TEXT
  8
Layer-0
  6
CONTINUOUS
 62
    11
  5
1E7
 10
12.4
 20
2.55
 30
0.0
 40
0.1
  1
10.000 MHz.
  7
VC-TEXTSTYLE0
  0
TEXT
  8
Layer-0
  6
CONTINUOUS
 62
    11
  5
1E8
 10
11.6
 20
0.1
 30
0.0
 40
0.05
  1
Doug Lung February 6, 1994
  7
VC-TEXTSTYLE0
  0
TEXT
  8
Layer-0
  6
CONTINUOUS
 62
    11
  5
1E9
 10
1.15
 20
0.424999
 30
0.0
 40
0.25
  1
Figure 1
  7
VC-TEXTSTYLE0
  0
LINE
  8
Layer-0
  6
CONTINUOUS
 62
    15
  5
1EA
 10
7.1
 20
5.5
 30
0.0
 11
7.1
 21
5.3
 31
0.0
  0
LINE
  8
Layer-0
  6
CONTINUOUS
 62
    15
  5
1EB
 10
7.1
 20
5.5
 30
0.0
 11
7.1
 21
5.7
 31
0.0
  0
LINE
  8
Layer-0
  6
CONTINUOUS
 62
    15
  5
1EC
 10
7.3
 20
5.7
 30
0.0
 11
7.3
 21
5.3
 31
0.0
  0
LINE
  8
Layer-0
  6
CONTINUOUS
 62
    15
  5
1ED
 10
7.9
 20
5.2
 30
0.0
 11
7.7
 21
5.2
 31
0.0
  0
LINE
  8
Layer-0
  6
CONTINUOUS
 62
    15
  5
1EE
 10
7.9
 20
5.2
 30
0.0
 11
8.1
 21
5.2
 31
0.0
  0
LINE
  8
Layer-0
  6
CONTINUOUS
 62
    15
  5
1EF
 10
7.6
 20
5.1
 30
0.0
 11
7.6
 21
4.9
 31
0.0
  0
LINE
  8
Layer-0
  6
CONTINUOUS
 62
    15
  5
1F0
 10
7.6
 20
4.9
 30
0.0
 11
8.200001
 21
4.9
 31
0.0
  0
LINE
  8
Layer-0
  6
CONTINUOUS
 62
    15
  5
1F1
 10
8.200001
 20
4.9
 30
0.0
 11
8.200001
 21
5.1
 31
0.0
  0
LINE
  8
Layer-0
  6
CONTINUOUS
 62
    15
  5
1F2
 10
8.200001
 20
5.1
 30
0.0
 11
7.6
 21
5.1
 31
0.0
  0
LINE
  8
Layer-0
  6
CONTINUOUS
 62
    15
  5
1F3
 10
7.7
 20
4.8
 30
0.0
 11
8.1
 21
4.8
 31
0.0
  0
LINE
  8
Layer-0
  6
CONTINUOUS
 62
    15
  5
1F4
 10
7.9
 20
4.8
 30
0.0
 11
7.9
 21
4.0
 31
0.0
  0
ARC
  8
Layer-0
  6
CONTINUOUS
 62
    15
  5
1F5
 10
7.9
 20
3.9
 30
0.0
 40
0.1
 50
270.0
 51
450.0
  0
ARC
  8
Layer-0
  6
CONTINUOUS
 62
    15
  5
1F6
 10
7.9
 20
3.7
 30
0.0
 40
0.1
 50
270.0
 51
450.0
  0
ARC
  8
Layer-0
  6
CONTINUOUS
 62
    15
  5
1F7
 10
7.9
 20
3.5
 30
0.0
 40
0.1
 50
270.0
 51
450.0
  0
ARC
  8
Layer-0
  6
CONTINUOUS
 62
    15
  5
1F8
 10
7.9
 20
3.3
 30
0.0
 40
0.1
 50
270.0
 51
450.0
  0
ARC
  8
Layer-0
  6
CONTINUOUS
 62
    15
  5
1F9
 10
7.9
 20
3.1
 30
0.0
 40
0.1
 50
270.0
 51
450.0
  0
LINE
  8
Layer-0
  6
CONTINUOUS
 62
    15
  5
1FA
 10
7.9
 20
3.0
 30
0.0
 11
7.9
 21
2.6
 31
0.0
  0
LINE
  8
Layer-0
  6
CONTINUOUS
 62
    15
  5
1FB
 10
7.9
 20
2.6
 30
0.0
 11
7.8
 21
2.6
 31
0.0
  0
LINE
  8
Layer-0
  6
CONTINUOUS
 62
    15
  5
1FC
 10
7.8
 20
2.6
 30
0.0
 11
7.9
 21
2.4
 31
0.0
  0
LINE
  8
Layer-0
  6
CONTINUOUS
 62
    15
  5
1FD
 10
7.9
 20
2.4
 30
0.0
 11
8.0
 21
2.6
 31
0.0
  0
LINE
  8
Layer-0
  6
CONTINUOUS
 62
    15
  5
1FE
 10
8.0
 20
2.6
 30
0.0
 11
7.9
 21
2.6
 31
0.0
  0
LINE
  8
Layer-0
  6
CONTINUOUS
 62
    15
  5
1FF
 10
8.5
 20
4.3
 30
0.0
 11
8.5
 21
3.8
 31
0.0
  0
LINE
  8
Layer-0
  6
CONTINUOUS
 62
    15
  5
200
 10
8.5
 20
3.8
 30
0.0
 11
8.3
 21
3.8
 31
0.0
  0
LINE
  8
Layer-0
  6
CONTINUOUS
 62
    15
  5
201
 10
8.5
 20
3.8
 30
0.0
 11
8.7
 21
3.8
 31
0.0
  0
LINE
  8
Layer-0
  6
CONTINUOUS
 62
    15
  5
202
 10
8.3
 20
3.6
 30
0.0
 11
8.7
 21
3.6
 31
0.0
  0
LINE
  8
Layer-0
  6
CONTINUOUS
 62
    15
  5
203
 10
8.5
 20
3.6
 30
0.0
 11
8.5
 21
3.1
 31
0.0
  0
LINE
  8
Layer-0
  6
CONTINUOUS
 62
    15
  5
204
 10
8.4
 20
3.4
 30
0.0
 11
8.7
 21
4.0
 31
0.0
  0
LINE
  8
Layer-0
  6
CONTINUOUS
 62
    15
  5
205
 10
8.7
 20
4.0
 30
0.0
 11
8.6
 21
3.925
 31
0.0
  0
LINE
  8
Layer-0
  6
CONTINUOUS
 62
    15
  5
206
 10
8.6
 20
3.925
 30
0.0
 11
8.7
 21
3.875
 31
0.0
  0
LINE
  8
Layer-0
  6
CONTINUOUS
 62
    15
  5
207
 10
8.7
 20
3.875
 30
0.0
 11
8.7
 21
4.0
 31
0.0
  0
LINE
  8
Layer-0
  6
CONTINUOUS
 62
    15
  5
208
 10
9.2
 20
4.3
 30
0.0
 11
9.2
 21
3.8
 31
0.0
  0
LINE
  8
Layer-0
  6
CONTINUOUS
 62
    15
  5
209
 10
9.2
 20
3.8
 30
0.0
 11
9.0
 21
3.8
 31
0.0
  0
LINE
  8
Layer-0
  6
CONTINUOUS
 62
    15
  5
20A
 10
9.2
 20
3.8
 30
0.0
 11
9.4
 21
3.8
 31
0.0
  0
LINE
  8
Layer-0
  6
CONTINUOUS
 62
    15
  5
20B
 10
9.0
 20
3.6
 30
0.0
 11
9.4
 21
3.6
 31
0.0
  0
LINE
  8
Layer-0
  6
CONTINUOUS
 62
    15
  5
20C
 10
9.2
 20
3.6
 30
0.0
 11
9.2
 21
3.1
 31
0.0
  0
LINE
  8
Layer-0
  6
CONTINUOUS
 62
    15
  5
20D
 10
9.099999
 20
3.4
 30
0.0
 11
9.4
 21
4.0
 31
0.0
  0
LINE
  8
Layer-0
  6
CONTINUOUS
 62
    15
  5
20E
 10
9.4
 20
4.0
 30
0.0
 11
9.3
 21
3.925
 31
0.0
  0
LINE
  8
Layer-0
  6
CONTINUOUS
 62
    15
  5
20F
 10
9.3
 20
3.925
 30
0.0
 11
9.4
 21
3.875
 31
0.0
  0
LINE
  8
Layer-0
  6
CONTINUOUS
 62
    15
  5
210
 10
9.4
 20
3.875
 30
0.0
 11
9.4
 21
4.0
 31
0.0
  0
LINE
  8
Layer-0
  6
CONTINUOUS
 62
    15
  5
211
 10
8.5
 20
4.3
 30
0.0
 11
9.2
 21
4.3
 31
0.0
  0
LINE
  8
Layer-0
  6
CONTINUOUS
 62
    15
  5
212
 10
8.5
 20
3.1
 30
0.0
 11
8.5
 21
3.1
 31
0.0
  0
LINE
  8
Layer-0
  6
CONTINUOUS
 62
    15
  5
213
 10
8.5
 20
3.1
 30
0.0
 11
8.5
 21
2.8
 31
0.0
  0
LINE
  8
Layer-0
  6
CONTINUOUS
 62
    15
  5
214
 10
8.5
 20
2.8
 30
0.0
 11
7.9
 21
2.8
 31
0.0
  0
LINE
  8
Layer-0
  6
CONTINUOUS
 62
    15
  5
215
 10
8.5
 20
4.3
 30
0.0
 11
8.5
 21
5.5
 31
0.0
  0
LINE
  8
Layer-0
  6
CONTINUOUS
 62
    15
  5
216
 10
8.5
 20
5.5
 30
0.0
 11
7.9
 21
5.5
 31
0.0
  0
TEXT
  8
Layer-0
  6
CONTINUOUS
 62
    11
  5
217
 10
7.999999
 20
4.099999
 30
0.0
 40
0.1
  1
L2
  7
VC-TEXTSTYLE0
  0
TEXT
  8
Layer-0
  6
CONTINUOUS
 62
    11
  5
218
 10
7.599999
 20
3.799999
 30
0.0
 40
0.1
  1
.6
  7
VC-TEXTSTYLE0
  0
TEXT
  8
Layer-0
  6
CONTINUOUS
 62
    11
  5
219
 10
7.599999
 20
3.649999
 30
0.0
 40
0.1
  1
h.
  7
VC-TEXTSTYLE0
  0
TEXT
  8
Layer-0
  6
CONTINUOUS
 62
    11
  5
21A
 10
7.599999
 20
3.349999
 30
0.0
 40
0.1
  1
e
  7
VC-TEXTSTYLE0
  0
TEXT
  8
Layer-0
  6
CONTINUOUS
 62
    11
  5
21B
 10
7.599999
 20
3.199999
 30
0.0
 40
0.1
  1
t)
  7
VC-TEXTSTYLE0
  0
TEXT
  8
Layer-0
  6
CONTINUOUS
 62
    11
  5
21C
 10
8.599998
 20
5.0
 30
0.0
 40
0.1
  1
10.000
  7
VC-TEXTSTYLE0
  0
TEXT
  8
Layer-0
  6
CONTINUOUS
 62
    11
  5
21D
 10
8.599998
 20
4.85
 30
0.0
 40
0.1
  1
MHz.
  7
VC-TEXTSTYLE0
  0
TEXT
  8
Layer-0
  6
CONTINUOUS
 62
    11
  5
21E
 10
8.200001
 20
3.9
 30
0.0
 40
0.1
  1
C7
  7
VC-TEXTSTYLE0
  0
TEXT
  8
Layer-0
  6
CONTINUOUS
 62
    11
  5
21F
 10
8.900002
 20
3.9
 30
0.0
 40
0.1
  1
C8
  7
VC-TEXTSTYLE0
  0
TEXT
  8
Layer-0
  6
CONTINUOUS
 62
    11
  5
220
 10
8.6
 20
3.4
 30
0.0
 40
0.1
  1
3 -
  7
VC-TEXTSTYLE0
  0
TEXT
  8
Layer-0
  6
CONTINUOUS
 62
    11
  5
221
 10
8.6
 20
3.25
 30
0.0
 40
0.1
  1
40 pf
  7
VC-TEXTSTYLE0
  0
TEXT
  8
Layer-0
  6
CONTINUOUS
 62
    11
  5
222
 10
9.300003
 20
3.4
 30
0.0
 40
0.1
  1
1 -
  7
VC-TEXTSTYLE0
  0
TEXT
  8
Layer-0
  6
CONTINUOUS
 62
    11
  5
223
 10
9.300003
 20
3.25
 30
0.0
 40
0.1
  1
3 pf
  7
VC-TEXTSTYLE0
  0
LINE
  8
Layer-0
  6
CONTINUOUS
 62
    15
  5
224
 10
9.2
 20
3.1
 30
0.0
 11
9.2
 21
2.8
 31
0.0
  0
LINE
  8
Layer-0
  6
CONTINUOUS
 62
    15
  5
225
 10
9.2
 20
2.8
 30
0.0
 11
8.5
 21
2.8
 31
0.0
  0
LINE
  8
Layer-0
  6
CONTINUOUS
 62
    15
  5
226
 10
7.9
 20
5.2
 30
0.0
 11
7.9
 21
5.5
 31
0.0
  0
LINE
  8
Layer-0
  6
CONTINUOUS
 62
    15
  5
227
 10
7.3
 20
5.5
 30
0.0
 11
7.9
 21
5.5
 31
0.0
  0
TEXT
  8
Layer-0
  6
CONTINUOUS
 62
    11
  5
228
 10
6.9
 20
3.1
 30
0.0
 40
0.1
  1
,
  7
VC-TEXTSTYLE0
  0
TEXT
  8
Layer-0
  6
CONTINUOUS
 62
    11
  5
229
 10
6.8
 20
3.1
 30
0.0
 40
0.1
  1
4.7
  7
VC-TEXTSTYLE0
  0
TEXT
  8
Layer-0
  6
CONTINUOUS
 62
    11
  5
22A
 10
7.5
 20
3.199999
 30
0.0
 40
0.1
  1
x
  7
VC-TEXTSTYLE0
  0
TEXT
  8
Layer-0
  6
CONTINUOUS
 62
    11
  5
22B
 10
7.4
 20
3.199999
 30
0.0
 40
0.1
  1
e
  7
VC-TEXTSTYLE0
  0
TEXT
  8
Layer-0
  6
CONTINUOUS
 62
    11
  5
22C
 10
7.3
 20
3.199999
 30
0.0
 40
0.1
  1
t
  7
VC-TEXTSTYLE0
  0
TEXT
  8
Layer-0
  6
CONTINUOUS
 62
    11
  5
22D
 10
7.5
 20
3.349999
 30
0.0
 40
0.1
  1
e
  7
VC-TEXTSTYLE0
  0
TEXT
  8
Layer-0
  6
CONTINUOUS
 62
    11
  5
22E
 10
7.4
 20
3.349999
 30
0.0
 40
0.1
  1
s
  7
VC-TEXTSTYLE0
  0
TEXT
  8
Layer-0
  6
CONTINUOUS
 62
    11
  5
22F
 10
7.3
 20
3.349999
 30
0.0
 40
0.1
  1
(
  7
VC-TEXTSTYLE0
  0
TEXT
  8
Layer-0
  6
CONTINUOUS
 62
    11
  5
230
 10
7.5
 20
3.799999
 30
0.0
 40
0.1
  1
2
  7
VC-TEXTSTYLE0
  0
TEXT
  8
Layer-0
  6
CONTINUOUS
 62
    11
  5
231
 10
7.5
 20
3.649999
 30
0.0
 40
0.1
  1
u
  7
VC-TEXTSTYLE0
  0
TEXT
  8
Layer-0
  6
CONTINUOUS
 62
    11
  5
232
 10
7.999999
 20
4.55
 30
0.0
 40
0.1
  1
X1
  7
VC-TEXTSTYLE0
  0
TEXT
  8
Layer-0
  6
CONTINUOUS
 62
    11
  5
233
 10
6.8
 20
5.6
 30
0.0
 40
0.1
  1
C
  7
VC-TEXTSTYLE0
  0
TEXT
  8
Layer-0
  6
CONTINUOUS
 62
    11
  5
234
 10
7.399999
 20
5.6
 30
0.0
 40
0.1
  1
220 pf
  7
VC-TEXTSTYLE0
  0
LINE
  8
Layer-0
  6
CONTINUOUS
 62
    15
  5
235
 10
6.6
 20
2.2
 30
0.0
 11
6.6
 21
2.8
 31
0.0
  0
LINE
  8
Layer-0
  6
CONTINUOUS
 62
    15
  5
236
 10
10.8
 20
2.6
 30
0.0
 11
9.5
 21
2.6
 31
0.0
  0
LINE
  8
Layer-0
  6
CONTINUOUS
 62
    15
  5
237
 10
9.5
 20
2.6
 30
0.0
 11
9.5
 21
2.6
 31
0.0
  0
LINE
  8
Layer-0
  6
CONTINUOUS
 62
    15
  5
238
 10
10.2
 20
0.2
 30
0.0
 11
10.2
 21
2.4
 31
0.0
  0
LINE
  8
Layer-0
  6
CONTINUOUS
 62
    15
  5
239
 10
5.4
 20
2.6
 30
0.0
 11
5.4
 21
0.2
 31
0.0
  0
LINE
  8
Layer-0
  6
CONTINUOUS
 62
    15
  5
23A
 10
5.4
 20
0.2
 30
0.0
 11
10.2
 21
0.2
 31
0.0
  0
LINE
  8
Layer-0
  6
CONTINUOUS
 62
    15
  5
23B
 10
9.5
 20
1.9
 30
0.0
 11
9.400001
 21
1.8
 31
0.0
  0
LINE
  8
Layer-0
  6
CONTINUOUS
 62
    15
  5
23C
 10
9.400001
 20
1.8
 30
0.0
 11
9.599999
 21
1.7
 31
0.0
  0
LINE
  8
Layer-0
  6
CONTINUOUS
 62
    15
  5
23D
 10
9.599999
 20
1.7
 30
0.0
 11
9.400001
 21
1.5
 31
0.0
  0
LINE
  8
Layer-0
  6
CONTINUOUS
 62
    15
  5
23E
 10
9.400001
 20
1.5
 30
0.0
 11
9.599999
 21
1.4
 31
0.0
  0
LINE
  8
Layer-0
  6
CONTINUOUS
 62
    15
  5
23F
 10
9.599999
 20
1.4
 30
0.0
 11
9.400001
 21
1.2
 31
0.0
  0
LINE
  8
Layer-0
  6
CONTINUOUS
 62
    15
  5
240
 10
9.400001
 20
1.2
 30
0.0
 11
9.599999
 21
1.1
 31
0.0
  0
LINE
  8
Layer-0
  6
CONTINUOUS
 62
    15
  5
241
 10
9.599999
 20
1.1
 30
0.0
 11
9.5
 21
1.0
 31
0.0
  0
LINE
  8
Layer-0
  6
CONTINUOUS
 62
    15
  5
242
 10
9.5
 20
1.9
 30
0.0
 11
9.5
 21
2.0
 31
0.0
  0
LINE
  8
Layer-0
  6
CONTINUOUS
 62
    15
  5
243
 10
9.5
 20
1.0
 30
0.0
 11
9.5
 21
0.6
 31
0.0
  0
LINE
  8
Layer-0
  6
CONTINUOUS
 62
    15
  5
244
 10
9.5
 20
0.6
 30
0.0
 11
9.400001
 21
0.6
 31
0.0
  0
LINE
  8
Layer-0
  6
CONTINUOUS
 62
    15
  5
245
 10
9.400001
 20
0.6
 30
0.0
 11
9.5
 21
0.4
 31
0.0
  0
LINE
  8
Layer-0
  6
CONTINUOUS
 62
    15
  5
246
 10
9.5
 20
0.4
 30
0.0
 11
9.6
 21
0.6
 31
0.0
  0
LINE
  8
Layer-0
  6
CONTINUOUS
 62
    15
  5
247
 10
9.6
 20
0.6
 30
0.0
 11
9.5
 21
0.6
 31
0.0
  0
TEXT
  8
Layer-0
  6
CONTINUOUS
 62
    11
  5
248
 10
9.700001
 20
1.6
 30
0.0
 40
0.1
  1
R
  7
VC-TEXTSTYLE0
  0
TEXT
  8
Layer-0
  6
CONTINUOUS
 62
    11
  5
249
 10
9.700001
 20
1.3
 30
0.0
 40
0.1
  1
1
  7
VC-TEXTSTYLE0
  0
LINE
  8
Layer-0
  6
CONTINUOUS
 62
    15
  5
24A
 10
9.5
 20
2.0
 30
0.0
 11
9.5
 21
2.6
 31
0.0
  0
LINE
  8
Layer-0
  6
CONTINUOUS
 62
    15
  5
24B
 10
6.6
 20
2.2
 30
0.0
 11
9.5
 21
2.2
 31
0.0
  0
TEXT
  8
Layer-0
  6
CONTINUOUS
 62
    11
  5
24C
 10
9.800001
 20
1.6
 30
0.0
 40
0.1
  1
2
  7
VC-TEXTSTYLE0
  0
TEXT
  8
Layer-0
  6
CONTINUOUS
 62
    11
  5
24D
 10
9.800001
 20
1.3
 30
0.0
 40
0.1
  1
.5M
  7
VC-TEXTSTYLE0
  0
TEXT
  8
Layer-0
  6
CONTINUOUS
 62
    11
  5
24E
 10
5.600001
 20
3.25
 30
0.0
 40
0.1
  1
R1
  7
VC-TEXTSTYLE0
  0
TEXT
  8
Layer-0
  6
CONTINUOUS
 62
    11
  5
24F
 10
5.600001
 20
2.949999
 30
0.0
 40
0.1
  1
82
  7
VC-TEXTSTYLE0
  0
TEXT
  8
Layer-0
  6
CONTINUOUS
 62
    11
  5
250
 10
11.400001
 20
4.1
 30
0.0
 40
0.1
  1
R3
  7
VC-TEXTSTYLE0
  0
LINE
  8
Layer-0
  6
CONTINUOUS
 62
    15
  5
251
 10
11.5
 20
5.35
 30
0.0
 11
12.5
 21
5.35
 31
0.0
  0
LINE
  8
Layer-0
  6
CONTINUOUS
 62
    15
  5
252
 10
8.075
 20
4.0
 30
0.0
 11
8.075
 21
3.0
 31
0.0
  0
LINE
  8
Layer-0
  6
CONTINUOUS
 62
    15
  5
253
 10
8.125
 20
4.0
 30
0.0
 11
8.125
 21
3.0
 31
0.0
  0
LINE
  8
Layer-0
  6
CONTINUOUS
 62
    15
  5
254
 10
5.5
 20
5.5
 30
0.0
 11
7.1
 21
5.5
 31
0.0
  0
TEXT
  8
Layer-0
  6
CONTINUOUS
 62
    11
  5
255
 10
4.9
 20
8.5
 30
0.0
 40
0.2
  1
+
  7
VC-TEXTSTYLE0
  0
TEXT
  8
Layer-0
  6
CONTINUOUS
 62
    11
  5
256
 10
7.9
 20
7.7
 30
0.0
 40
0.2
  1
+
  7
VC-TEXTSTYLE0
  0
TEXT
  8
Layer-0
  6
CONTINUOUS
 62
    11
  5
257
 10
10.6
 20
7.0
 30
0.0
 40
0.2
  1
+
  7
VC-TEXTSTYLE0
  0
TEXT
  8
Layer-0
  6
CONTINUOUS
 62
    11
  5
258
 10
3.7
 20
2.1
 30
0.0
 40
0.2
  1
+
  7
VC-TEXTSTYLE0
  0
TEXT
  8
Layer-0
  6
CONTINUOUS
 62
    11
  5
259
 10
6.9
 20
5.6
 30
0.0
 40
0.1
  1
6
  7
VC-TEXTSTYLE0
  0
TEXT
  8
Layer-0
  6
CONTINUOUS
 62
    11
  5
25A
 10
2.7
 20
5.3
 30
0.0
 40
0.1
  1
C2
  7
VC-TEXTSTYLE0
  0
TEXT
  8
Layer-0
  6
CONTINUOUS
 62
    11
  5
25B
 10
12.0
 20
2.1
 30
0.0
 40
0.1
  1
C9
  7
VC-TEXTSTYLE0
  0
TEXT
  8
Layer-0
  6
CONTINUOUS
 62
    11
  5
25C
 10
13.400001
 20
8.900001
 30
0.0
 40
0.1
  1
C15
  7
VC-TEXTSTYLE0
  0
LINE
  8
Layer-0
  6
CONTINUOUS
 62
    11
  5
25D
 10
2.9
 20
4.725
 30
0.0
 11
3.0
 21
4.675
 31
0.0
  0
LINE
  8
Layer-0
  6
CONTINUOUS
 62
    11
  5
25E
 10
3.0
 20
4.675
 30
0.0
 11
3.0
 21
4.8
 31
0.0
  0
LINE
  8
Layer-0
  6
CONTINUOUS
 62
    11
  5
25F
 10
3.0
 20
4.8
 30
0.0
 11
2.9
 21
4.725
 31
0.0
  0
CIRCLE
  8
Layer-0
  6
CONTINUOUS
 62
    11
  5
260
 10
4.2
 20
2.0
 30
0.0
 40
0.05
  0
CIRCLE
  8
Layer-0
  6
CONTINUOUS
 62
    11
  5
261
 10
4.8
 20
2.0
 30
0.0
 40
0.05
  0
LINE
  8
Layer-0
  6
CONTINUOUS
 62
    11
  5
262
 10
8.6
 20
3.925
 30
0.0
 11
8.7
 21
3.875
 31
0.0
  0
LINE
  8
Layer-0
  6
CONTINUOUS
 62
    11
  5
263
 10
8.7
 20
3.875
 30
0.0
 11
8.7
 21
4.0
 31
0.0
  0
LINE
  8
Layer-0
  6
CONTINUOUS
 62
    11
  5
264
 10
8.7
 20
4.0
 30
0.0
 11
8.6
 21
3.925
 31
0.0
  0
LINE
  8
Layer-0
  6
CONTINUOUS
 62
    11
  5
265
 10
9.3
 20
3.925
 30
0.0
 11
9.4
 21
3.875
 31
0.0
  0
LINE
  8
Layer-0
  6
CONTINUOUS
 62
    11
  5
266
 10
9.4
 20
3.875
 30
0.0
 11
9.4
 21
4.0
 31
0.0
  0
LINE
  8
Layer-0
  6
CONTINUOUS
 62
    11
  5
267
 10
9.4
 20
4.0
 30
0.0
 11
9.3
 21
3.925
 31
0.0
  0
ENDSEC
  0
EOF
